  0
SECTION
  2
HEADER
  9
$ACADVER
  1
AC1015
  9
$ACADMAINTVER
 70
     6
  9
$DWGCODEPAGE
  3
ANSI_1254
  9
$INSBASE
 10
0.0
 20
0.0
 30
0.0
  9
$EXTMIN
 10
0.0
 20
0.0
 30
0.0
  9
$EXTMAX
 10
279.4
 20
215.9
 30
0.0
  9
$LIMMIN
 10
0.0
 20
0.0
  9
$LIMMAX
 10
279.4
 20
215.9
  9
$ORTHOMODE
 70
     0
  9
$REGENMODE
 70
     1
  9
$FILLMODE
 70
     1
  9
$QTEXTMODE
 70
     0
  9
$MIRRTEXT
 70
     1
  9
$LTSCALE
 40
1.0
  9
$ATTMODE
 70
     1
  9
$TEXTSIZE
 40
3.5
  9
$TRACEWID
 40
1.0
  9
$TEXTSTYLE
  7
Standard
  9
$CLAYER
  8
0
  9
$CELTYPE
  6
ByLayer
  9
$CECOLOR
 62
   256
  9
$CELTSCALE
 40
1.0
  9
$DISPSILH
 70
     0
  9
$DIMSCALE
 40
1.0
  9
$DIMASZ
 40
3.5
  9
$DIMEXO
 40
1.0
  9
$DIMDLI
 40
3.75
  9
$DIMRND
 40
0.0
  9
$DIMDLE
 40
0.0
  9
$DIMEXE
 40
1.0
  9
$DIMTP
 40
0.0
  9
$DIMTM
 40
0.0
  9
$DIMTXT
 40
3.5
  9
$DIMCEN
 40
2.5
  9
$DIMTSZ
 40
0.0
  9
$DIMTOL
 70
     0
  9
$DIMLIM
 70
     0
  9
$DIMTIH
 70
     1
  9
$DIMTOH
 70
     1
  9
$DIMSE1
 70
     0
  9
$DIMSE2
 70
     0
  9
$DIMTAD
 70
     1
  9
$DIMZIN
 70
     0
  9
$DIMBLK
  1

  9
$DIMASO
 70
     1
  9
$DIMSHO
 70
     1
  9
$DIMPOST
  1

  9
$DIMAPOST
  1

  9
$DIMALT
 70
     0
  9
$DIMALTD
 70
     3
  9
$DIMALTF
 40
0.0393700787
  9
$DIMLFAC
 40
1.0
  9
$DIMTOFL
 70
     1
  9
$DIMTVP
 40
0.0
  9
$DIMTIX
 70
     0
  9
$DIMSOXD
 70
     0
  9
$DIMSAH
 70
     0
  9
$DIMBLK1
  1

  9
$DIMBLK2
  1

  9
$DIMSTYLE
  2
ISO-25
  9
$DIMCLRD
 70
     0
  9
$DIMCLRE
 70
     0
  9
$DIMCLRT
 70
     0
  9
$DIMTFAC
 40
1.0
  9
$DIMGAP
 40
1.524
  9
$DIMJUST
 70
     0
  9
$DIMSD1
 70
     0
  9
$DIMSD2
 70
     0
  9
$DIMTOLJ
 70
     0
  9
$DIMTZIN
 70
     0
  9
$DIMALTZ
 70
     0
  9
$DIMALTTZ
 70
     0
  9
$DIMUPT
 70
     0
  9
$DIMDEC
 70
     2
  9
$DIMTDEC
 70
     2
  9
$DIMALTU
 70
     2
  9
$DIMALTTD
 70
     3
  9
$DIMTXSTY
  7
Standard
  9
$DIMAUNIT
 70
     0
  9
$DIMADEC
 70
     2
  9
$DIMALTRND
 40
0.0
  9
$DIMAZIN
 70
     0
  9
$DIMDSEP
 70
    44
  9
$DIMATFIT
 70
     3
  9
$DIMFRAC
 70
     0
  9
$DIMLDRBLK
  1

  9
$DIMLUNIT
 70
     2
  9
$DIMLWD
 70
    -2
  9
$DIMLWE
 70
    -2
  9
$DIMTMOVE
 70
     0
  9
$LUNITS
 70
     2
  9
$LUPREC
 70
     2
  9
$SKETCHINC
 40
1.0
  9
$FILLETRAD
 40
10.0
  9
$AUNITS
 70
     0
  9
$AUPREC
 70
     2
  9
$MENU
  1
.
  9
$ELEVATION
 40
0.0
  9
$PELEVATION
 40
0.0
  9
$THICKNESS
 40
0.0
  9
$LIMCHECK
 70
     0
  9
$CHAMFERA
 40
0.0
  9
$CHAMFERB
 40
0.0
  9
$CHAMFERC
 40
0.0
  9
$CHAMFERD
 40
0.0
  9
$SKPOLY
 70
     0
  9
$TDCREATE
 40
2459935.710222106
  9
$TDUCREATE
 40
2459935.585222106
  9
$TDUPDATE
 40
2459935.71022228
  9
$TDUUPDATE
 40
2459935.58522228
  9
$TDINDWG
 40
0.0000000116
  9
$TDUSRTIMER
 40
0.0000000116
  9
$USRTIMER
 70
     1
  9
$ANGBASE
 50
0.0
  9
$ANGDIR
 70
     0
  9
$PDMODE
 70
     0
  9
$PDSIZE
 40
-1.0
  9
$PLINEWID
 40
0.0
  9
$SPLFRAME
 70
     0
  9
$SPLINETYPE
 70
     6
  9
$SPLINESEGS
 70
     8
  9
$HANDSEED
  5
10F
  9
$SURFTAB1
 70
     6
  9
$SURFTAB2
 70
     6
  9
$SURFTYPE
 70
     6
  9
$SURFU
 70
     6
  9
$SURFV
 70
     6
  9
$UCSBASE
  2

  9
$UCSNAME
  2

  9
$UCSORG
 10
0.0
 20
0.0
 30
0.0
  9
$UCSXDIR
 10
1.0
 20
0.0
 30
0.0
  9
$UCSYDIR
 10
0.0
 20
1.0
 30
0.0
  9
$UCSORTHOREF
  2

  9
$UCSORTHOVIEW
 70
     0
  9
$UCSORGTOP
 10
0.0
 20
0.0
 30
0.0
  9
$UCSORGBOTTOM
 10
0.0
 20
0.0
 30
0.0
  9
$UCSORGLEFT
 10
0.0
 20
0.0
 30
0.0
  9
$UCSORGRIGHT
 10
0.0
 20
0.0
 30
0.0
  9
$UCSORGFRONT
 10
0.0
 20
0.0
 30
0.0
  9
$UCSORGBACK
 10
0.0
 20
0.0
 30
0.0
  9
$PUCSBASE
  2

  9
$PUCSNAME
  2

  9
$PUCSORG
 10
0.0
 20
0.0
 30
0.0
  9
$PUCSXDIR
 10
1.0
 20
0.0
 30
0.0
  9
$PUCSYDIR
 10
0.0
 20
1.0
 30
0.0
  9
$PUCSORTHOREF
  2

  9
$PUCSORTHOVIEW
 70
     0
  9
$PUCSORGTOP
 10
0.0
 20
0.0
 30
0.0
  9
$PUCSORGBOTTOM
 10
0.0
 20
0.0
 30
0.0
  9
$PUCSORGLEFT
 10
0.0
 20
0.0
 30
0.0
  9
$PUCSORGRIGHT
 10
0.0
 20
0.0
 30
0.0
  9
$PUCSORGFRONT
 10
0.0
 20
0.0
 30
0.0
  9
$PUCSORGBACK
 10
0.0
 20
0.0
 30
0.0
  9
$USERI1
 70
     0
  9
$USERI2
 70
     0
  9
$USERI3
 70
     0
  9
$USERI4
 70
     0
  9
$USERI5
 70
     0
  9
$USERR1
 40
0.0
  9
$USERR2
 40
0.0
  9
$USERR3
 40
0.0
  9
$USERR4
 40
0.0
  9
$USERR5
 40
0.0
  9
$WORLDVIEW
 70
     1
  9
$SHADEDGE
 70
     3
  9
$SHADEDIF
 70
    70
  9
$TILEMODE
 70
     1
  9
$MAXACTVP
 70
    64
  9
$PINSBASE
 10
0.0
 20
0.0
 30
0.0
  9
$PLIMCHECK
 70
     0
  9
$PEXTMIN
 10
1.0000000000E+20
 20
1.0000000000E+20
 30
1.0000000000E+20
  9
$PEXTMAX
 10
-1.0000000000E+20
 20
-1.0000000000E+20
 30
-1.0000000000E+20
  9
$PLIMMIN
 10
0.0
 20
0.0
  9
$PLIMMAX
 10
420.0
 20
297.0
  9
$UNITMODE
 70
     0
  9
$VISRETAIN
 70
     1
  9
$PLINEGEN
 70
     0
  9
$PSLTSCALE
 70
     1
  9
$TREEDEPTH
 70
  3020
  9
$CMLSTYLE
  2
Standard
  9
$CMLJUST
 70
     0
  9
$CMLSCALE
 40
20.0
  9
$PROXYGRAPHICS
 70
     1
  9
$MEASUREMENT
 70
     1
  9
$CELWEIGHT
370
    -1
  9
$ENDCAPS
280
     0
  9
$JOINSTYLE
280
     0
  9
$LWDISPLAY
290
     1
  9
$INSUNITS
 70
     4
  9
$HYPERLINKBASE
  1

  9
$STYLESHEET
  1

  9
$XEDIT
290
     1
  9
$CEPSNTYPE
380
     0
  9
$PSTYLEMODE
290
     1
  9
$FINGERPRINTGUID
  2
{3330d243-6436-4696-b3ef-d61e2e674c92}
  9
$VERSIONGUID
  2
{FAEB1C32-E019-11D5-929B-00C0DF256EC4}
  9
$EXTNAMES
290
     1
  9
$PSVPSCALE
 40
0.0
  9
$OLESTARTUP
290
     0
  0
ENDSEC
  0
SECTION
  2
CLASSES
  0
CLASS
  1
ACDBDICTIONARYWDFLT
  2
AcDbDictionaryWithDefault
  3
ObjectDBX Classes
 90
        0
280
     0
281
     0
  0
CLASS
  1
VISUALSTYLE
  2
AcDbVisualStyle
  3
ObjectDBX Classes
 90
     4095
280
     0
281
     0
  0
CLASS
  1
MATERIAL
  2
AcDbMaterial
  3
ObjectDBX Classes
 90
     1153
280
     0
281
     0
  0
CLASS
  1
SCALE
  2
AcDbScale
  3
ObjectDBX Classes
 90
     1153
280
     0
281
     0
  0
CLASS
  1
TABLESTYLE
  2
AcDbTableStyle
  3
ObjectDBX Classes
 90
     4095
280
     0
281
     0
  0
CLASS
  1
MLEADERSTYLE
  2
AcDbMLeaderStyle
  3
ACDB_MLEADERSTYLE_CLASS
 90
     4095
280
     0
281
     0
  0
CLASS
  1
SUN
  2
AcDbSun
  3
SCENEOE
 90
     1153
280
     0
281
     0
  0
CLASS
  1
ACDBPLACEHOLDER
  2
AcDbPlaceHolder
  3
ObjectDBX Classes
 90
        0
280
     0
281
     0
  0
CLASS
  1
LAYOUT
  2
AcDbLayout
  3
ObjectDBX Classes
 90
        0
280
     0
281
     0
  0
ENDSEC
  0
SECTION
  2
TABLES
  0
TABLE
  2
VPORT
  5
8
330
0
100
AcDbSymbolTable
 70
     1
  0
VPORT
  5
29
330
8
100
AcDbSymbolTableRecord
100
AcDbViewportTableRecord
  2
*Active
 70
     0
 10
0.0
 20
0.0
 11
1.0
 21
1.0
 12
139.7
 22
107.95
 13
0.0
 23
0.0
 14
10.0
 24
10.0
 15
10.0
 25
10.0
 16
0.0
 26
0.0
 36
1.0
 17
0.0
 27
0.0
 37
0.0
 40
215.9
 41
1.2941176471
 42
50.0
 43
0.0
 44
0.0
 50
0.0
 51
0.0
 71
     0
 72
  2000
 73
     1
 74
     3
 75
     0
 76
     0
 77
     0
 78
     0
281
     0
 65
     1
110
0.0
120
0.0
130
0.0
111
1.0
121
0.0
131
0.0
112
0.0
122
1.0
132
0.0
 79
     0
146
0.0
  0
ENDTAB
  0
TABLE
  2
LTYPE
  5
5
330
0
100
AcDbSymbolTable
 70
     6
  0
LTYPE
  5
14
330
5
100
AcDbSymbolTableRecord
100
AcDbLinetypeTableRecord
  2
ByBlock
 70
     0
  3

 72
    65
 73
     0
 40
0.0
  0
LTYPE
  5
15
330
5
100
AcDbSymbolTableRecord
100
AcDbLinetypeTableRecord
  2
ByLayer
 70
     0
  3

 72
    65
 73
     0
 40
0.0
  0
LTYPE
  5
16
330
5
100
AcDbSymbolTableRecord
100
AcDbLinetypeTableRecord
  2
Continuous
 70
     0
  3
Solid line
 72
    65
 73
     0
 40
0.0
  0
LTYPE
  5
6E
330
5
100
AcDbSymbolTableRecord
100
AcDbLinetypeTableRecord
  2
HIDDEN
 70
     0
  3
Hidden __ __ __ __ __ __ __ __ __ __ __ __ __ __
 72
    65
 73
     2
 40
1.905
 49
1.27
 74
     0
 49
-0.635
 74
     0
  0
LTYPE
  5
6F
330
5
100
AcDbSymbolTableRecord
100
AcDbLinetypeTableRecord
  2
PHANTOM
 70
     0
  3
Phantom ______  __  __  ______  __  __  ______
 72
    65
 73
     6
 40
12.7
 49
6.35
 74
     0
 49
-1.27
 74
     0
 49
1.27
 74
     0
 49
-1.27
 74
     0
 49
1.27
 74
     0
 49
-1.27
 74
     0
  0
LTYPE
  5
70
330
5
100
AcDbSymbolTableRecord
100
AcDbLinetypeTableRecord
  2
CENTER
 70
     0
  3
Center ____ _ ____ _ ____ _ ____ _ ____ _ ____
 72
    65
 73
     4
 40
10.16
 49
6.35
 74
     0
 49
-1.27
 74
     0
 49
1.27
 74
     0
 49
-1.27
 74
     0
  0
LTYPE
  5
71
330
5
100
AcDbSymbolTableRecord
100
AcDbLinetypeTableRecord
  2
CENTERX2
 70
     0
  3
Center (2x) ________  __  ________  __  _____
 72
    65
 73
     4
 40
20.32
 49
12.7
 74
     0
 49
-2.54
 74
     0
 49
2.54
 74
     0
 49
-2.54
 74
     0
  0
LTYPE
  5
72
330
5
100
AcDbSymbolTableRecord
100
AcDbLinetypeTableRecord
  2
DOT2
 70
     0
  3
Dot (.5x) ........................................
 72
    65
 73
     2
 40
0.635
 49
0.0
 74
     0
 49
-0.635
 74
     0
  0
ENDTAB
  0
TABLE
  2
LAYER
  5
2
330
0
100
AcDbSymbolTable
 70
    17
  0
LAYER
  5
10
330
2
100
AcDbSymbolTableRecord
100
AcDbLayerTableRecord
  2
0
 70
     0
 62
     7
  6
Continuous
370
    -3
390
F
  0
LAYER
  5
73
330
2
100
AcDbSymbolTableRecord
100
AcDbLayerTableRecord
  2
FORMAT
 70
     0
 62
     7
  6
Continuous
370
    -3
390
F
  0
LAYER
  5
74
330
2
100
AcDbSymbolTableRecord
100
AcDbLayerTableRecord
  2
YARDIMCI_GEOMETRI
 70
     0
 62
    -6
  6
Continuous
290
     0
370
    -3
390
F
  0
LAYER
  5
75
330
2
100
AcDbSymbolTableRecord
100
AcDbLayerTableRecord
  2
SAYFA_CERCEVESI
 70
     0
 62
     7
  6
Continuous
370
    25
390
F
  0
LAYER
  5
76
330
2
100
AcDbSymbolTableRecord
100
AcDbLayerTableRecord
  2
ANTET
 70
     0
 62
     7
  6
Continuous
370
    -3
390
F
  0
LAYER
  5
77
330
2
100
AcDbSymbolTableRecord
100
AcDbLayerTableRecord
  2
OLCU
 70
     0
 62
   150
  6
Continuous
370
    -3
390
F
  0
LAYER
  5
78
330
2
100
AcDbSymbolTableRecord
100
AcDbLayerTableRecord
  2
METIN
 70
     0
 62
    96
  6
Continuous
370
    -3
390
F
  0
LAYER
  5
79
330
2
100
AcDbSymbolTableRecord
100
AcDbLayerTableRecord
  2
BALON
 70
     0
 62
     5
  6
Continuous
370
    -3
390
F
  0
LAYER
  5
7A
330
2
100
AcDbSymbolTableRecord
100
AcDbLayerTableRecord
  2
VURGU
 70
     0
 62
     7
  6
Continuous
370
    -3
390
F
  0
LAYER
  5
7B
330
2
100
AcDbSymbolTableRecord
100
AcDbLayerTableRecord
  2
SILIK
 70
     0
 62
     7
  6
Continuous
370
    -3
390
F
  0
LAYER
  5
7C
330
2
100
AcDbSymbolTableRecord
100
AcDbLayerTableRecord
  2
MODEL
 70
     0
 62
     7
  6
Continuous
370
    -3
390
F
  0
LAYER
  5
7D
330
2
100
AcDbSymbolTableRecord
100
AcDbLayerTableRecord
  2
DETAYLANDıRMA
 70
     0
 62
   190
  6
Continuous
370
    -3
390
F
  0
LAYER
  5
7E
330
2
100
AcDbSymbolTableRecord
100
AcDbLayerTableRecord
  2
TOLERANS
 70
     0
 62
   230
  6
Continuous
370
    -3
390
F
  0
LAYER
  5
7F
330
2
100
AcDbSymbolTableRecord
100
AcDbLayerTableRecord
  2
MERKEZ_CIZGILERI
 70
     0
 62
    30
  6
Continuous
370
    -3
390
F
  0
LAYER
  5
80
330
2
100
AcDbSymbolTableRecord
100
AcDbLayerTableRecord
  2
KESIT-DETAY_CIZGILERI
 70
     0
 62
     7
  6
Continuous
370
    -3
390
F
  0
LAYER
  5
81
330
2
100
AcDbSymbolTableRecord
100
AcDbLayerTableRecord
  2
\U+041E\U+0421\U+0415\U+0412\U+042B\U+0415
 70
     0
 62
     7
  6
Continuous
370
    -3
390
F
  0
LAYER
  5
82
330
2
100
AcDbSymbolTableRecord
100
AcDbLayerTableRecord
  2
\U+0412\U+041E\U+0414\U+042F\U+041D\U+042B\U+0415_\U+0417\U+041D\U+0410\U+041A\U+0418
 70
     0
 62
    11
  6
Continuous
370
    -3
390
F
  0
ENDTAB
  0
TABLE
  2
STYLE
  5
3
330
0
100
AcDbSymbolTable
 70
     1
  0
STYLE
  5
11
330
3
100
AcDbSymbolTableRecord
100
AcDbTextStyleTableRecord
  2
Standard
 70
     0
 40
0.0
 41
1.0
 50
0.0
 71
     0
 42
3.5
  3
txt
  4

  0
ENDTAB
  0
TABLE
  2
VIEW
  5
6
330
0
100
AcDbSymbolTable
 70
     0
  0
ENDTAB
  0
TABLE
  2
UCS
  5
7
330
0
100
AcDbSymbolTable
 70
     0
  0
ENDTAB
  0
TABLE
  2
APPID
  5
9
330
0
100
AcDbSymbolTable
 70
     1
  0
APPID
  5
12
330
9
100
AcDbSymbolTableRecord
100
AcDbRegAppTableRecord
  2
ACAD
 70
     0
  0
ENDTAB
  0
TABLE
  2
DIMSTYLE
  5
A
330
0
100
AcDbSymbolTable
 70
     1
100
AcDbDimStyleTable
  0
DIMSTYLE
105
27
330
A
100
AcDbSymbolTableRecord
100
AcDbDimStyleTableRecord
  2
ISO-25
 70
     0
 41
2.5
 42
0.625
 43
3.75
 44
1.25
 73
     0
 74
     0
 77
     1
 78
     8
140
2.5
141
2.5
143
0.0393700787
147
0.625
171
     3
172
     1
178
     0
271
     2
272
     2
274
     3
278
    44
283
     0
284
     8
340
11
  0
ENDTAB
  0
TABLE
  2
BLOCK_RECORD
  5
1
330
0
100
AcDbSymbolTable
 70
     4
  0
BLOCK_RECORD
  5
1F
330
1
100
AcDbSymbolTableRecord
100
AcDbBlockTableRecord
  2
*Model_Space
340
22
  0
BLOCK_RECORD
  5
1B
330
1
100
AcDbSymbolTableRecord
100
AcDbBlockTableRecord
  2
*Paper_Space
340
1E
  0
BLOCK_RECORD
  5
23
330
1
100
AcDbSymbolTableRecord
100
AcDbBlockTableRecord
  2
*Paper_Space0
340
26
  0
BLOCK_RECORD
  5
8C
330
1
100
AcDbSymbolTableRecord
100
AcDbBlockTableRecord
  2
SW_CENTERMARKSYMBOL_0
340
0
102
{BLKREFS
331
97
102
}
  0
BLOCK_RECORD
  5
DE
330
1
100
AcDbSymbolTableRecord
100
AcDbBlockTableRecord
  2
SW_CENTERMARKSYMBOL_1
340
0
102
{BLKREFS
331
E9
102
}
  0
BLOCK_RECORD
  5
EA
330
1
100
AcDbSymbolTableRecord
100
AcDbBlockTableRecord
  2
SW_CENTERMARKSYMBOL_2
340
0
102
{BLKREFS
331
F5
102
}
  0
ENDTAB
  0
ENDSEC
  0
SECTION
  2
BLOCKS
  0
BLOCK
  5
20
330
1F
100
AcDbEntity
  8
0
100
AcDbBlockBegin
  2
*Model_Space
 70
     0
 10
0.0
 20
0.0
 30
0.0
  3
*Model_Space
  1

  0
ENDBLK
  5
21
330
1F
100
AcDbEntity
  8
0
100
AcDbBlockEnd
  0
BLOCK
  5
1C
330
1B
100
AcDbEntity
 67
     1
  8
0
100
AcDbBlockBegin
  2
*Paper_Space
 70
     0
 10
0.0
 20
0.0
 30
0.0
  3
*Paper_Space
  1

  0
ENDBLK
  5
1D
330
1B
100
AcDbEntity
 67
     1
  8
0
100
AcDbBlockEnd
  0
BLOCK
  5
24
330
23
100
AcDbEntity
  8
0
100
AcDbBlockBegin
  2
*Paper_Space0
 70
     0
 10
0.0
 20
0.0
 30
0.0
  3
*Paper_Space0
  1

  0
ENDBLK
  5
25
330
23
100
AcDbEntity
  8
0
100
AcDbBlockEnd
  0
BLOCK
  5
8D
330
8C
100
AcDbEntity
  8
0
100
AcDbBlockBegin
  2
SW_CENTERMARKSYMBOL_0
 70
     0
 10
0.0
 20
0.0
 30
0.0
  3
SW_CENTERMARKSYMBOL_0
  1

  0
LINE
  5
8F
330
8C
100
AcDbEntity
  8
FORMAT
 62
     0
100
AcDbLine
 10
0.0
 20
0.0
 30
0.0
 11
0.0
 21
2.5
 31
0.0
  0
LINE
  5
90
330
8C
100
AcDbEntity
  8
FORMAT
 62
     0
100
AcDbLine
 10
0.0
 20
0.0
 30
0.0
 11
-2.5
 21
0.0
 31
0.0
  0
LINE
  5
91
330
8C
100
AcDbEntity
  8
FORMAT
 62
     0
100
AcDbLine
 10
0.0
 20
0.0
 30
0.0
 11
0.0
 21
-2.5
 31
0.0
  0
LINE
  5
92
330
8C
100
AcDbEntity
  8
FORMAT
 62
     0
100
AcDbLine
 10
0.0
 20
0.0
 30
0.0
 11
2.5
 21
0.0
 31
0.0
  0
LINE
  5
93
330
8C
100
AcDbEntity
  8
FORMAT
 62
     0
100
AcDbLine
 10
0.0
 20
5.0
 30
0.0
 11
0.0
 21
65.4
 31
0.0
  0
LINE
  5
94
330
8C
100
AcDbEntity
  8
FORMAT
 62
     0
100
AcDbLine
 10
-5.0
 20
0.0
 30
0.0
 11
-65.4
 21
0.0
 31
0.0
  0
LINE
  5
95
330
8C
100
AcDbEntity
  8
FORMAT
 62
     0
100
AcDbLine
 10
0.0
 20
-5.0
 30
0.0
 11
0.0
 21
-65.4
 31
0.0
  0
LINE
  5
96
330
8C
100
AcDbEntity
  8
FORMAT
 62
     0
100
AcDbLine
 10
5.0
 20
0.0
 30
0.0
 11
65.4
 21
0.0
 31
0.0
  0
ENDBLK
  5
8E
330
8C
100
AcDbEntity
  8
0
100
AcDbBlockEnd
  0
BLOCK
  5
DF
330
DE
100
AcDbEntity
  8
0
100
AcDbBlockBegin
  2
SW_CENTERMARKSYMBOL_1
 70
     0
 10
0.0
 20
0.0
 30
0.0
  3
SW_CENTERMARKSYMBOL_1
  1

  0
LINE
  5
E1
330
DE
100
AcDbEntity
  8
FORMAT
 62
     0
100
AcDbLine
 10
0.0
 20
0.0
 30
0.0
 11
0.0
 21
2.5
 31
0.0
  0
LINE
  5
E2
330
DE
100
AcDbEntity
  8
FORMAT
 62
     0
100
AcDbLine
 10
0.0
 20
0.0
 30
0.0
 11
-2.5
 21
0.0
 31
0.0
  0
LINE
  5
E3
330
DE
100
AcDbEntity
  8
FORMAT
 62
     0
100
AcDbLine
 10
0.0
 20
0.0
 30
0.0
 11
0.0
 21
-2.5
 31
0.0
  0
LINE
  5
E4
330
DE
100
AcDbEntity
  8
FORMAT
 62
     0
100
AcDbLine
 10
0.0
 20
0.0
 30
0.0
 11
2.5
 21
0.0
 31
0.0
  0
LINE
  5
E5
330
DE
100
AcDbEntity
  8
FORMAT
 62
     0
100
AcDbLine
 10
0.0
 20
5.0
 30
0.0
 11
0.0
 21
9.5
 31
0.0
  0
LINE
  5
E6
330
DE
100
AcDbEntity
  8
FORMAT
 62
     0
100
AcDbLine
 10
-5.0
 20
0.0
 30
0.0
 11
-9.5
 21
0.0
 31
0.0
  0
LINE
  5
E7
330
DE
100
AcDbEntity
  8
FORMAT
 62
     0
100
AcDbLine
 10
0.0
 20
-5.0
 30
0.0
 11
0.0
 21
-9.5
 31
0.0
  0
LINE
  5
E8
330
DE
100
AcDbEntity
  8
FORMAT
 62
     0
100
AcDbLine
 10
5.0
 20
0.0
 30
0.0
 11
9.5
 21
0.0
 31
0.0
  0
ENDBLK
  5
E0
330
DE
100
AcDbEntity
  8
0
100
AcDbBlockEnd
  0
BLOCK
  5
EB
330
EA
100
AcDbEntity
  8
0
100
AcDbBlockBegin
  2
SW_CENTERMARKSYMBOL_2
 70
     0
 10
0.0
 20
0.0
 30
0.0
  3
SW_CENTERMARKSYMBOL_2
  1

  0
LINE
  5
ED
330
EA
100
AcDbEntity
  8
FORMAT
 62
     0
100
AcDbLine
 10
0.0
 20
0.0
 30
0.0
 11
0.0
 21
2.5
 31
0.0
  0
LINE
  5
EE
330
EA
100
AcDbEntity
  8
FORMAT
 62
     0
100
AcDbLine
 10
0.0
 20
0.0
 30
0.0
 11
-2.5
 21
0.0
 31
0.0
  0
LINE
  5
EF
330
EA
100
AcDbEntity
  8
FORMAT
 62
     0
100
AcDbLine
 10
0.0
 20
0.0
 30
0.0
 11
0.0
 21
-2.5
 31
0.0
  0
LINE
  5
F0
330
EA
100
AcDbEntity
  8
FORMAT
 62
     0
100
AcDbLine
 10
0.0
 20
0.0
 30
0.0
 11
2.5
 21
0.0
 31
0.0
  0
LINE
  5
F1
330
EA
100
AcDbEntity
  8
FORMAT
 62
     0
100
AcDbLine
 10
0.0
 20
5.0
 30
0.0
 11
0.0
 21
9.5
 31
0.0
  0
LINE
  5
F2
330
EA
100
AcDbEntity
  8
FORMAT
 62
     0
100
AcDbLine
 10
-5.0
 20
0.0
 30
0.0
 11
-9.5
 21
0.0
 31
0.0
  0
LINE
  5
F3
330
EA
100
AcDbEntity
  8
FORMAT
 62
     0
100
AcDbLine
 10
0.0
 20
-5.0
 30
0.0
 11
0.0
 21
-9.5
 31
0.0
  0
LINE
  5
F4
330
EA
100
AcDbEntity
  8
FORMAT
 62
     0
100
AcDbLine
 10
5.0
 20
0.0
 30
0.0
 11
9.5
 21
0.0
 31
0.0
  0
ENDBLK
  5
EC
330
EA
100
AcDbEntity
  8
0
100
AcDbBlockEnd
  0
ENDSEC
  0
SECTION
  2
ENTITIES
  0
LINE
  5
83
330
1F
100
AcDbEntity
  8
0
  6
Continuous
 62
     7
370
    25
100
AcDbLine
 10
137.6070913462
 20
172.4652168655
 30
0.0
 11
137.6070913462
 21
182.7949519231
 31
0.0
  0
LINE
  5
84
330
1F
100
AcDbEntity
  8
0
  6
Continuous
 62
     7
370
    25
100
AcDbLine
 10
123.6070913462
 20
182.7949519231
 30
0.0
 11
123.6070913462
 21
172.4631854459
 31
0.0
  0
CIRCLE
  5
85
330
1F
100
AcDbEntity
  8
0
  6
Continuous
 62
     7
370
    25
100
AcDbCircle
 10
130.6070913462
 20
95.8949519231
 30
0.0
 40
76.54999999999998
  0
ARC
  5
86
330
1F
100
AcDbEntity
  8
0
  6
Continuous
 62
     7
370
    25
100
AcDbCircle
 10
130.6070913462
 20
95.8949519231
 30
0.0
 40
77.55000000000003
100
AcDbArc
 50
95.1788148757
 51
180.0
  0
ARC
  5
87
330
1F
100
AcDbEntity
  8
0
  6
Continuous
 62
     7
370
    25
100
AcDbCircle
 10
130.6070913462
 20
95.8949519231
 30
0.0
 40
77.55000000000003
100
AcDbArc
 50
180.0
 51
84.8211851243
  0
SPLINE
  5
88
330
1F
100
AcDbEntity
  8
0
  6
Continuous
 62
     7
370
    25
100
AcDbSpline
210
0.0
220
0.0
230
1.0
 70
     8
 71
     3
 72
    21
 73
    17
 74
     0
 42
0.00000001
 43
0.00000001
 40
0.0
 40
0.0
 40
0.0
 40
0.0
 40
0.0714872349411106
 40
0.1429742987850757
 40
0.2144653145890783
 40
0.2859556825694627
 40
0.3573600082240224
 40
0.4287644972110075
 40
0.5000999079796434
 40
0.5714359726475747
 40
0.6428779232203498
 40
0.7143196668196797
 40
0.7858335285255212
 40
0.8573463778412117
 40
0.9287142817791247
 40
1.0
 40
1.0
 40
1.0
 40
1.0
 10
135.5750513446098
 20
172.4912213516513
 30
0.0
 10
135.2839292245571
 20
172.5018109622569
 30
0.0
 10
134.7016856812218
 20
172.522990158123
 30
0.0
 10
133.6758953932761
 20
172.5542711800297
 30
0.0
 10
132.5713571197893
 20
172.5785491388698
 30
0.0
 10
131.4097024253175
 20
172.5932881103148
 30
0.0
 10
130.225945249706
 20
172.5952524772262
 30
0.0
 10
129.053464000685
 20
172.5852847357716
 30
0.0
 10
127.9264490548666
 20
172.563813966871
 30
0.0
 10
126.8736655387781
 20
172.5348758120678
 30
0.0
 10
125.928219795318
 20
172.5022664685887
 30
0.0
 10
125.1121802498082
 20
172.4713880080333
 30
0.0
 10
124.4538848332002
 20
172.4476688378883
 30
0.0
 10
123.9707596520365
 20
172.4357534297011
 30
0.0
 10
123.6656013606668
 20
172.4386005245773
 30
0.0
 10
123.6266636049353
 20
172.4549936202432
 30
0.0
 10
123.6072059434947
 20
172.4631854458745
 30
0.0
  0
SPLINE
  5
89
330
1F
100
AcDbEntity
  8
0
  6
Continuous
 62
     7
370
    25
100
AcDbSpline
210
0.0
220
0.0
230
1.0
 70
     8
 71
     3
 72
    12
 73
     8
 74
     0
 42
0.00000001
 43
0.00000001
 40
0.0
 40
0.0
 40
0.0
 40
0.0
 40
0.0745650943575429
 40
0.2904152522334705
 40
0.5055090300294466
 40
0.7206055316548103
 40
1.0
 40
1.0
 40
1.0
 40
1.0
 10
137.5841311341144
 20
172.4652168654541
 30
0.0
 10
137.5901224497951
 20
172.4612584627396
 30
0.0
 10
137.6134573556193
 20
172.4458413224185
 30
0.0
 10
137.4529478752109
 20
172.4366437500551
 30
0.0
 10
137.0973402356169
 20
172.4382119112529
 30
0.0
 10
136.5073137554439
 20
172.45607190396
 30
0.0
 10
135.9116243665807
 20
172.4785314097502
 30
0.0
 10
135.5750513446098
 20
172.4912213516512
 30
0.0
  0
CIRCLE
  5
8A
330
1F
100
AcDbEntity
  8
0
  6
Continuous
 62
     7
370
    25
100
AcDbCircle
 10
130.6070913462
 20
95.8949519231
 30
0.0
 40
62.89999999999999
  0
LINE
  5
8B
330
1F
100
AcDbEntity
  8
0
  6
Continuous
 62
     7
370
    25
100
AcDbLine
 10
137.6070913462
 20
182.7949519231
 30
0.0
 11
123.6070913462
 21
182.7949519231
 31
0.0
  0
INSERT
  5
97
330
1F
100
AcDbEntity
  8
FORMAT
 62
     7
100
AcDbBlockReference
  2
SW_CENTERMARKSYMBOL_0
 10
130.6070913462
 20
95.8949519231
 30
0.0
  0
ARC
  5
98
330
1F
100
AcDbEntity
  8
0
  6
Continuous
 62
     7
370
    25
100
AcDbCircle
 10
354.5255634789
 20
-1907.1800480769
 30
0.0
 40
2080.625000000002
100
AcDbArc
 50
91.6380529175
 51
91.7764709905
  0
ARC
  5
99
330
1F
100
AcDbEntity
  8
0
  6
Continuous
 62
     7
370
    25
100
AcDbCircle
 10
354.5255634789
 20
-1907.1800480769
 30
0.0
 40
2080.625000000001
100
AcDbArc
 50
90.0
 51
91.2535890947
  0
ARC
  5
9A
330
1F
100
AcDbEntity
  8
0
  6
Continuous
 62
     7
370
    25
100
AcDbCircle
 10
354.5255634789
 20
2098.9699519231
 30
0.0
 40
2080.625000000002
100
AcDbArc
 50
268.2235290095
 51
270.0
  0
LINE
  5
9B
330
1F
100
AcDbEntity
  8
0
  6
Continuous
 62
     7
370
    25
100
AcDbLine
 10
354.5255634789
 20
18.3449519231
 30
0.0
 11
379.5255634789
 21
18.3449519231
 31
0.0
  0
LINE
  5
9C
330
1F
100
AcDbEntity
  8
0
  6
Continuous
 62
     7
370
    25
100
AcDbLine
 10
379.5255634789
 20
173.4449519231
 30
0.0
 11
354.5255634789
 21
173.4449519231
 31
0.0
  0
ARC
  5
9D
330
1F
100
AcDbEntity
  8
0
  6
Continuous
 62
     7
370
    25
100
AcDbCircle
 10
379.5255634789
 20
-1907.1800480769
 30
0.0
 40
2080.625000000001
100
AcDbArc
 50
88.7463042589
 51
90.0
  0
ARC
  5
9E
330
1F
100
AcDbEntity
  8
0
  6
Continuous
 62
     7
370
    25
100
AcDbCircle
 10
379.5255634789
 20
-1907.1800480769
 30
0.0
 40
2080.625000000002
100
AcDbArc
 50
88.2235290095
 51
88.3618495937
  0
ARC
  5
9F
330
1F
100
AcDbEntity
  8
0
  6
Continuous
 62
     7
370
    25
100
AcDbCircle
 10
379.5255634789
 20
2098.9699519231
 30
0.0
 40
2080.625000000002
100
AcDbArc
 50
270.0
 51
271.7764709905
  0
LINE
  5
A0
330
1F
100
AcDbEntity
  8
0
  6
Continuous
 62
     7
370
    25
100
AcDbLine
 10
309.0255634789
 20
172.9452754883
 30
0.0
 11
309.0255634789
 21
182.7949519231
 31
0.0
  0
LINE
  5
A1
330
1F
100
AcDbEntity
  8
0
  6
Continuous
 62
     7
370
    25
100
AcDbLine
 10
295.0255634789
 20
182.7949519231
 30
0.0
 11
295.0255634789
 21
172.5924926896
 31
0.0
  0
LINE
  5
A2
330
1F
100
AcDbEntity
  8
0
  6
Continuous
 62
     7
370
    25
100
AcDbLine
 10
439.0255634789
 20
172.5927190575
 30
0.0
 11
439.0255634789
 21
182.7949519231
 31
0.0
  0
LINE
  5
A3
330
1F
100
AcDbEntity
  8
0
  6
Continuous
 62
     7
370
    25
100
AcDbLine
 10
425.0255634789
 20
182.7949519231
 30
0.0
 11
425.0255634789
 21
172.9448419145
 31
0.0
  0
LINE
  5
A4
330
1F
100
AcDbEntity
  8
0
  6
Continuous
 62
     7
370
    25
100
AcDbLine
 10
290.0255634789
 20
95.8949519231
 30
0.0
 11
290.0255634789
 21
172.4449519231
 31
0.0
  0
LINE
  5
A5
330
1F
100
AcDbEntity
  8
0
  6
Continuous
 62
     7
370
    25
100
AcDbLine
 10
290.0255634789
 20
19.3449519231
 30
0.0
 11
290.0255634789
 21
95.8949519231
 31
0.0
  0
SPLINE
  5
A6
330
1F
100
AcDbEntity
  8
0
  6
Continuous
 62
     7
370
    25
100
AcDbSpline
210
0.0
220
0.0
230
1.0
 70
     8
 71
     3
 72
    27
 73
    23
 74
     0
 42
0.00000001
 43
0.00000001
 40
0.0
 40
0.0
 40
0.0
 40
0.0
 40
0.0140913373937568
 40
0.0683310104923537
 40
0.1209068765579573
 40
0.1749967275716957
 40
0.2277733163935842
 40
0.2820648620348768
 40
0.3351081773793044
 40
0.3896887824071062
 40
0.442733023431667
 40
0.4973280939129356
 40
0.5501519406896416
 40
0.6045151417438425
 40
0.657220251018929
 40
0.7114484020142917
 40
0.764254359617937
 40
0.8185848426467557
 40
0.8715043292795194
 40
0.9259605219729801
 40
0.9788381554918117
 40
1.0
 40
1.0
 40
1.0
 40
1.0
 10
309.0067622598389
 20
172.9452709825107
 30
0.0
 10
309.012328741635
 20
172.9458970138081
 30
0.0
 10
309.0393214475357
 20
172.9489327335528
 30
0.0
 10
308.8902889220366
 20
172.9321200486494
 30
0.0
 10
308.5554023086041
 20
172.8953866583817
 30
0.0
 10
308.026483887899
 20
172.8401509945801
 30
0.0
 10
307.3271980734787
 20
172.7725518829558
 30
0.0
 10
306.4824857069896
 20
172.6990218398202
 30
0.0
 10
305.5021234403765
 20
172.6249604556482
 30
0.0
 10
304.4299894593745
 20
172.5578286542662
 30
0.0
 10
303.278644038453
 20
172.5019429713163
 30
0.0
 10
302.1030588942735
 20
172.4622225106637
 30
0.0
 10
300.9157487955601
 20
172.4399193424612
 30
0.0
 10
299.7728242199334
 20
172.4353750087072
 30
0.0
 10
298.6843925023741
 20
172.4464681923602
 30
0.0
 10
297.6999948195131
 20
172.469471442509
 30
0.0
 10
296.8285915098525
 20
172.5000831938944
 30
0.0
 10
296.1111839621306
 20
172.5325198268865
 30
0.0
 10
295.5516388895937
 20
172.5623516324734
 30
0.0
 10
295.1925764588882
 20
172.5835660781909
 30
0.0
 10
295.0218835198849
 20
172.5942404101514
 30
0.0
 10
295.0436651731001
 20
172.5928807395479
 30
0.0
 10
295.0498907701835
 20
172.5924921206832
 30
0.0
  0
LINE
  5
A7
330
1F
100
AcDbEntity
  8
0
  6
Continuous
 62
     7
370
    25
100
AcDbLine
 10
444.0255634789
 20
95.8949519231
 30
0.0
 11
444.0255634789
 21
172.4449519231
 31
0.0
  0
LINE
  5
A8
330
1F
100
AcDbEntity
  8
0
  6
Continuous
 62
     7
370
    25
100
AcDbLine
 10
444.0255634789
 20
19.3449519231
 30
0.0
 11
444.0255634789
 21
95.8949519231
 31
0.0
  0
SPLINE
  5
A9
330
1F
100
AcDbEntity
  8
0
  6
Continuous
 62
     7
370
    25
100
AcDbSpline
210
0.0
220
0.0
230
1.0
 70
     8
 71
     3
 72
    27
 73
    23
 74
     0
 42
0.00000001
 43
0.00000001
 40
0.0
 40
0.0
 40
0.0
 40
0.0
 40
0.01650412220064
 40
0.0708816907521323
 40
0.1236765167589091
 40
0.177998105790246
 40
0.2308709249532347
 40
0.285273827627994
 40
0.3381951466877109
 40
0.392657034004169
 40
0.4454703091812047
 40
0.499821822629867
 40
0.5525274709273896
 40
0.6067561317777739
 40
0.6595694347528622
 40
0.7139014902499244
 40
0.7669371767247354
 40
0.8215089905853854
 40
0.8745608050030851
 40
0.9291657024784636
 40
0.9819566308005526
 40
1.0
 40
1.0
 40
1.0
 40
1.0
 10
439.0048366616558
 20
172.5927176972199
 30
0.0
 10
439.010695756313
 20
172.5930834658672
 30
0.0
 10
439.0358593203323
 20
172.5946543643269
 30
0.0
 10
438.8787845008196
 20
172.5848065391009
 30
0.0
 10
438.5321661876096
 20
172.5642278497255
 30
0.0
 10
437.9915421365949
 20
172.5350938823073
 30
0.0
 10
437.2799286942505
 20
172.5024480678225
 30
0.0
 10
436.4248129113068
 20
172.4716658657857
 30
0.0
 10
435.4363142429841
 20
172.4476813554942
 30
0.0
 10
434.3604032533279
 20
172.4356679771926
 30
0.0
 10
433.2088658654114
 20
172.4391322303076
 30
0.0
 10
432.0361505105847
 20
172.459972491236
 30
0.0
 10
430.8537942674583
 20
172.4986641378726
 30
0.0
 10
429.7156592866751
 20
172.5526446656631
 30
0.0
 10
428.6324039190545
 20
172.6192276891859
 30
0.0
 10
427.652492379031
 20
172.6922235127741
 30
0.0
 10
426.786411655657
 20
172.7667819062752
 30
0.0
 10
426.0758751807946
 20
172.834988255635
 30
0.0
 10
425.5247884664988
 20
172.8922454296911
 30
0.0
 10
425.1775739471597
 20
172.9302531166014
 30
0.0
 10
425.0171778893988
 20
172.9483281772865
 30
0.0
 10
425.0418999735005
 20
172.9455474593614
 30
0.0
 10
425.048197342239
 20
172.9448391369537
 30
0.0
  0
LINE
  5
AA
330
1F
100
AcDbEntity
  8
0
  6
Continuous
 62
     7
370
    25
100
AcDbLine
 10
309.0255634789
 20
182.7949519231
 30
0.0
 11
295.0255634789
 21
182.7949519231
 31
0.0
  0
LINE
  5
AB
330
1F
100
AcDbEntity
  8
0
  6
Continuous
 62
     7
370
    25
100
AcDbLine
 10
439.0255634789
 20
182.7949519231
 30
0.0
 11
425.0255634789
 21
182.7949519231
 31
0.0
  0
LINE
  5
AC
330
1F
100
AcDbEntity
  8
0
  6
Continuous
 62
     1
370
    25
100
AcDbLine
 10
354.5255634789
 20
95.8949519231
 30
0.0
 11
354.5255634789
 21
173.4449519231
 31
0.0
  0
LINE
  5
AD
330
1F
100
AcDbEntity
  8
0
  6
Continuous
 62
     1
370
    25
100
AcDbLine
 10
354.5255634789
 20
18.3449519231
 30
0.0
 11
354.5255634789
 21
95.8949519231
 31
0.0
  0
LINE
  5
AE
330
1F
100
AcDbEntity
  8
0
  6
Continuous
 62
     1
370
    25
100
AcDbLine
 10
379.5255634789
 20
95.8949519231
 30
0.0
 11
379.5255634789
 21
173.4449519231
 31
0.0
  0
LINE
  5
AF
330
1F
100
AcDbEntity
  8
0
  6
Continuous
 62
     1
370
    25
100
AcDbLine
 10
379.5255634789
 20
18.3449519231
 30
0.0
 11
379.5255634789
 21
95.8949519231
 31
0.0
  0
ARC
  5
B0
330
1F
100
AcDbEntity
  8
0
  6
Continuous
 62
     7
370
    25
100
AcDbCircle
 10
2133.6820913462
 20
312.5141593933
 30
0.0
 40
2080.625000000001
100
AcDbArc
 50
180.0
 51
181.7764709905
  0
ARC
  5
B1
330
1F
100
AcDbEntity
  8
0
  6
Continuous
 62
     7
370
    25
100
AcDbCircle
 10
-1872.4679086538
 20
312.5141593933
 30
0.0
 40
2080.625000000002
100
AcDbArc
 50
358.2235290095
 51
0.0
  0
LINE
  5
B2
330
1F
100
AcDbEntity
  8
0
  6
Continuous
 62
     7
370
    25
100
AcDbLine
 10
208.1570913462
 20
312.5141593933
 30
0.0
 11
208.1570913462
 21
337.5141593933
 31
0.0
  0
LINE
  5
B3
330
1F
100
AcDbEntity
  8
0
  6
Continuous
 62
     7
370
    25
100
AcDbLine
 10
53.0570913462
 20
337.5141593933
 30
0.0
 11
53.0570913462
 21
312.5141593933
 31
0.0
  0
ARC
  5
B4
330
1F
100
AcDbEntity
  8
0
  6
Continuous
 62
     7
370
    25
100
AcDbCircle
 10
2133.6820913462
 20
337.5141593933
 30
0.0
 40
2080.625000000001
100
AcDbArc
 50
178.2235290095
 51
180.0
  0
ARC
  5
B5
330
1F
100
AcDbEntity
  8
0
  6
Continuous
 62
     7
370
    25
100
AcDbCircle
 10
-1872.4679086538
 20
337.5141593933
 30
0.0
 40
2080.625000000002
100
AcDbArc
 50
0.0
 51
1.7764709905
  0
LINE
  5
B6
330
1F
100
AcDbEntity
  8
0
  6
Continuous
 62
     7
370
    25
100
AcDbLine
 10
207.1570913462
 20
248.0141593933
 30
0.0
 11
54.0570913462
 21
248.0141593933
 31
0.0
  0
LINE
  5
B7
330
1F
100
AcDbEntity
  8
0
  6
Continuous
 62
     7
370
    25
100
AcDbLine
 10
207.1570913462
 20
402.0141593933
 30
0.0
 11
54.0570913462
 21
402.0141593933
 31
0.0
  0
LINE
  5
B8
330
1F
100
AcDbEntity
  8
0
  6
Continuous
 62
     1
370
    25
100
AcDbLine
 10
208.1570913462
 20
312.5141593933
 30
0.0
 11
53.0570913462
 21
312.5141593933
 31
0.0
  0
LINE
  5
B9
330
1F
100
AcDbEntity
  8
0
  6
Continuous
 62
     1
370
    25
100
AcDbLine
 10
208.1570913462
 20
337.5141593933
 30
0.0
 11
53.0570913462
 21
337.5141593933
 31
0.0
  0
ARC
  5
BA
330
1F
100
AcDbEntity
  8
0
  6
Continuous
 62
     7
370
    25
100
AcDbCircle
 10
-114.074850104
 20
2098.9699519231
 30
0.0
 40
2080.625000000002
100
AcDbArc
 50
270.0
 51
271.7764709905
  0
ARC
  5
BB
330
1F
100
AcDbEntity
  8
0
  6
Continuous
 62
     7
370
    25
100
AcDbCircle
 10
-114.074850104
 20
-1907.1800480769
 30
0.0
 40
2080.625000000002
100
AcDbArc
 50
88.7464100339
 51
90.0
  0
ARC
  5
BC
330
1F
100
AcDbEntity
  8
0
  6
Continuous
 62
     7
370
    25
100
AcDbCircle
 10
-114.074850104
 20
-1907.1800480769
 30
0.0
 40
2080.625000000002
100
AcDbArc
 50
88.2235290095
 51
88.3619484537
  0
LINE
  5
BD
330
1F
100
AcDbEntity
  8
0
  6
Continuous
 62
     7
370
    25
100
AcDbLine
 10
-114.074850104
 20
173.4449519231
 30
0.0
 11
-139.074850104
 21
173.4449519231
 31
0.0
  0
LINE
  5
BE
330
1F
100
AcDbEntity
  8
0
  6
Continuous
 62
     7
370
    25
100
AcDbLine
 10
-139.074850104
 20
18.3449519231
 30
0.0
 11
-114.074850104
 21
18.3449519231
 31
0.0
  0
ARC
  5
BF
330
1F
100
AcDbEntity
  8
0
  6
Continuous
 62
     7
370
    25
100
AcDbCircle
 10
-139.074850104
 20
2098.9699519231
 30
0.0
 40
2080.625000000002
100
AcDbArc
 50
268.2235290095
 51
270.0
  0
ARC
  5
C0
330
1F
100
AcDbEntity
  8
0
  6
Continuous
 62
     7
370
    25
100
AcDbCircle
 10
-139.074850104
 20
-1907.1800480769
 30
0.0
 40
2080.625000000002
100
AcDbArc
 50
91.6381519474
 51
91.7764709905
  0
ARC
  5
C1
330
1F
100
AcDbEntity
  8
0
  6
Continuous
 62
     7
370
    25
100
AcDbCircle
 10
-139.074850104
 20
-1907.1800480769
 30
0.0
 40
2080.625000000002
100
AcDbArc
 50
90.0
 51
91.2536948713
  0
LINE
  5
C2
330
1F
100
AcDbEntity
  8
0
  6
Continuous
 62
     7
370
    25
100
AcDbLine
 10
-54.574850104
 20
172.5924926896
 30
0.0
 11
-54.574850104
 21
182.7949519231
 31
0.0
  0
LINE
  5
C3
330
1F
100
AcDbEntity
  8
0
  6
Continuous
 62
     7
370
    25
100
AcDbLine
 10
-68.574850104
 20
182.7949519231
 30
0.0
 11
-68.574850104
 21
172.9452754883
 31
0.0
  0
LINE
  5
C4
330
1F
100
AcDbEntity
  8
0
  6
Continuous
 62
     7
370
    25
100
AcDbLine
 10
-184.574850104
 20
172.9448419145
 30
0.0
 11
-184.574850104
 21
182.7949519231
 31
0.0
  0
LINE
  5
C5
330
1F
100
AcDbEntity
  8
0
  6
Continuous
 62
     7
370
    25
100
AcDbLine
 10
-198.574850104
 20
182.7949519231
 30
0.0
 11
-198.574850104
 21
172.5927190575
 31
0.0
  0
LINE
  5
C6
330
1F
100
AcDbEntity
  8
0
  6
Continuous
 62
     7
370
    25
100
AcDbLine
 10
-49.574850104
 20
172.4449519231
 30
0.0
 11
-49.574850104
 21
19.3449519231
 31
0.0
  0
SPLINE
  5
C7
330
1F
100
AcDbEntity
  8
0
  6
Continuous
 62
     7
370
    25
100
AcDbSpline
210
0.0
220
0.0
230
1.0
 70
     8
 71
     3
 72
    12
 73
     8
 74
     0
 42
0.00000001
 43
0.00000001
 40
0.0
 40
0.0
 40
0.0
 40
0.0
 40
0.2088602449278091
 40
0.4237540014692295
 40
0.6326216341344228
 40
0.8475937923288227
 40
1.0
 40
1.0
 40
1.0
 40
1.0
 10
-66.4723393621893
 20
172.7377402019141
 30
0.0
 10
-66.73601204038404
 20
172.7614175731411
 30
0.0
 10
-67.2709743186374
 20
172.8094563026045
 30
0.0
 10
-67.87489968318039
 20
172.8710979374427
 30
0.0
 10
-68.30853582777024
 20
172.9175227341868
 30
0.0
 10
-68.54734705290011
 20
172.9442826777797
 30
0.0
 10
-68.55349825553405
 20
172.9449812954716
 30
0.0
 10
-68.55605007010224
 20
172.9452711156758
 30
0.0
  0
SPLINE
  5
C8
330
1F
100
AcDbEntity
  8
0
  6
Continuous
 62
     7
370
    25
100
AcDbSpline
210
0.0
220
0.0
230
1.0
 70
     8
 71
     3
 72
    21
 73
    17
 74
     0
 42
0.00000001
 43
0.00000001
 40
0.0
 40
0.0
 40
0.0
 40
0.0
 40
0.044546922367542
 40
0.115273380814237
 40
0.1880482094426012
 40
0.258829871148083
 40
0.3316574589160119
 40
0.4025509176633822
 40
0.4755038938316145
 40
0.5463224442550993
 40
0.6192056772394303
 40
0.6898379264705542
 40
0.762517747949497
 40
0.833181032592784
 40
0.9058773489979924
 40
1.0
 40
1.0
 40
1.0
 40
1.0
 10
-54.59917768217325
 20
172.5924921028042
 30
0.0
 10
-54.59698711695285
 20
172.5926265643306
 30
0.0
 10
-54.59131862527195
 20
172.5929745083393
 30
0.0
 10
-54.80598644745297
 20
172.5796549547146
 30
0.0
 10
-55.20946548245031
 20
172.5562566691096
 30
0.0
 10
-55.80627574546322
 20
172.5254023554693
 30
0.0
 10
-56.55848576311396
 20
172.4929404530819
 30
0.0
 10
-57.46157478662953
 20
172.4634590395072
 30
0.0
 10
-58.47298722718983
 20
172.4427199359426
 30
0.0
 10
-59.58191511019295
 20
172.4349413147064
 30
0.0
 10
-60.73576085114259
 20
172.4434344264826
 30
0.0
 10
-61.92240337379375
 20
172.4698227029743
 30
0.0
 10
-63.087913795364
 20
172.5131184852341
 30
0.0
 10
-64.2177526780227
 20
172.5716001418301
 30
0.0
 10
-65.38960542266229
 20
172.6479130264795
 30
0.0
 10
-66.08179304252054
 20
172.705339192311
 30
0.0
 10
-66.4723393621893
 20
172.7377402019141
 30
0.0
  0
LINE
  5
C9
330
1F
100
AcDbEntity
  8
0
  6
Continuous
 62
     7
370
    25
100
AcDbLine
 10
-203.574850104
 20
172.4449519231
 30
0.0
 11
-203.574850104
 21
19.3449519231
 31
0.0
  0
SPLINE
  5
CA
330
1F
100
AcDbEntity
  8
0
  6
Continuous
 62
     7
370
    25
100
AcDbSpline
210
0.0
220
0.0
230
1.0
 70
     8
 71
     3
 72
    12
 73
     8
 74
     0
 42
0.00000001
 43
0.00000001
 40
0.0
 40
0.0
 40
0.0
 40
0.0
 40
0.2107515629517246
 40
0.4276098880646254
 40
0.6383628258698991
 40
0.8552412818192168
 40
1.0
 40
1.0
 40
1.0
 40
1.0
 10
-196.506317781487
 20
172.4912213516515
 30
0.0
 10
-196.7683586587825
 20
172.5016659091902
 30
0.0
 10
-197.3000333407603
 20
172.5228576669995
 30
0.0
 10
-197.8972938250273
 20
172.5540284725512
 30
0.0
 10
-198.3225817546732
 20
172.5783304076828
 30
0.0
 10
-198.5517682914949
 20
172.5925645520209
 30
0.0
 10
-198.5534506449243
 20
172.5926739538433
 30
0.0
 10
-198.5541240694043
 20
172.5927177459884
 30
0.0
  0
SPLINE
  5
CB
330
1F
100
AcDbEntity
  8
0
  6
Continuous
 62
     7
370
    25
100
AcDbSpline
210
0.0
220
0.0
230
1.0
 70
     8
 71
     3
 72
    21
 73
    17
 74
     0
 42
0.00000001
 43
0.00000001
 40
0.0
 40
0.0
 40
0.0
 40
0.0
 40
0.0484641269864946
 40
0.1186799069621826
 40
0.1909245646050017
 40
0.261291388269112
 40
0.3336768066584219
 40
0.4044302567944847
 40
0.4772269185079748
 40
0.5481105296822666
 40
0.6210633065924421
 40
0.6917008565730108
 40
0.7644013122880094
 40
0.83479994689501
 40
0.907237317070282
 40
1.0
 40
1.0
 40
1.0
 40
1.0
 10
-184.5974846249129
 20
172.9448390630621
 30
0.0
 10
-184.5973057457997
 20
172.9448555491228
 30
0.0
 10
-184.5968677031107
 20
172.9448959205123
 30
0.0
 10
-184.8227505725469
 20
172.919603745767
 30
0.0
 10
-185.2345454219646
 20
172.8751899583926
 30
0.0
 10
-185.8365652274909
 20
172.8140506826763
 30
0.0
 10
-186.5929660541701
 20
172.7436584739154
 30
0.0
 10
-187.4993803965348
 20
172.6687725908091
 30
0.0
 10
-188.5150648507087
 20
172.5971345215764
 30
0.0
 10
-189.6286568888055
 20
172.5335766091869
 30
0.0
 10
-190.787569097835
 20
172.484105901894
 30
0.0
 10
-191.9785830527963
 20
172.4510252787222
 30
0.0
 10
-193.1458552248981
 20
172.4360778393142
 30
0.0
 10
-194.2748603963423
 20
172.4381766511383
 30
0.0
 10
-195.4377848958569
 20
172.4559267499437
 30
0.0
 10
-196.1220763255569
 20
172.4785295109706
 30
0.0
 10
-196.506317781487
 20
172.4912213516515
 30
0.0
  0
LINE
  5
CC
330
1F
100
AcDbEntity
  8
0
  6
Continuous
 62
     7
370
    25
100
AcDbLine
 10
-54.574850104
 20
182.7949519231
 30
0.0
 11
-68.574850104
 21
182.7949519231
 31
0.0
  0
LINE
  5
CD
330
1F
100
AcDbEntity
  8
0
  6
Continuous
 62
     7
370
    25
100
AcDbLine
 10
-184.574850104
 20
182.7949519231
 30
0.0
 11
-198.574850104
 21
182.7949519231
 31
0.0
  0
LINE
  5
CE
330
1F
100
AcDbEntity
  8
0
  6
Continuous
 62
     1
370
    25
100
AcDbLine
 10
-114.074850104
 20
173.4449519231
 30
0.0
 11
-114.074850104
 21
18.3449519231
 31
0.0
  0
LINE
  5
CF
330
1F
100
AcDbEntity
  8
0
  6
Continuous
 62
     1
370
    25
100
AcDbLine
 10
-139.074850104
 20
173.4449519231
 30
0.0
 11
-139.074850104
 21
18.3449519231
 31
0.0
  0
ARC
  5
D0
330
1F
100
AcDbEntity
  8
0
  6
Continuous
 62
     7
370
    25
100
AcDbCircle
 10
-1872.4679086538
 20
-105.4391405632
 30
0.0
 40
2080.625000000002
100
AcDbArc
 50
0.0
 51
1.7764709905
  0
ARC
  5
D1
330
1F
100
AcDbEntity
  8
0
  6
Continuous
 62
     7
370
    25
100
AcDbCircle
 10
2133.6820913462
 20
-105.4391405632
 30
0.0
 40
2080.625000000001
100
AcDbArc
 50
178.2235290095
 51
180.0
  0
LINE
  5
D2
330
1F
100
AcDbEntity
  8
0
  6
Continuous
 62
     7
370
    25
100
AcDbLine
 10
53.0570913462
 20
-105.4391405632
 30
0.0
 11
53.0570913462
 21
-130.4391405632
 31
0.0
  0
LINE
  5
D3
330
1F
100
AcDbEntity
  8
0
  6
Continuous
 62
     7
370
    25
100
AcDbLine
 10
208.1570913462
 20
-130.4391405632
 30
0.0
 11
208.1570913462
 21
-105.4391405632
 31
0.0
  0
ARC
  5
D4
330
1F
100
AcDbEntity
  8
0
  6
Continuous
 62
     7
370
    25
100
AcDbCircle
 10
-1872.4679086538
 20
-130.4391405632
 30
0.0
 40
2080.625000000002
100
AcDbArc
 50
358.2235290095
 51
0.0
  0
ARC
  5
D5
330
1F
100
AcDbEntity
  8
0
  6
Continuous
 62
     7
370
    25
100
AcDbCircle
 10
2133.6820913462
 20
-130.4391405632
 30
0.0
 40
2080.625000000001
100
AcDbArc
 50
180.0
 51
181.7764709905
  0
CIRCLE
  5
D6
330
1F
100
AcDbEntity
  8
0
  6
Continuous
 62
     7
370
    25
100
AcDbCircle
 10
130.6070913462
 20
-52.9391405632
 30
0.0
 40
7.000000000000028
  0
CIRCLE
  5
D7
330
1F
100
AcDbEntity
  8
0
  6
Continuous
 62
     7
370
    25
100
AcDbCircle
 10
130.6070913462
 20
-52.9391405632
 30
0.0
 40
5.000000000000014
  0
CIRCLE
  5
D8
330
1F
100
AcDbEntity
  8
0
  6
Continuous
 62
     7
370
    25
100
AcDbCircle
 10
130.6070913462
 20
-182.9391405632
 30
0.0
 40
7.0
  0
CIRCLE
  5
D9
330
1F
100
AcDbEntity
  8
0
  6
Continuous
 62
     7
370
    25
100
AcDbCircle
 10
130.6070913462
 20
-182.9391405632
 30
0.0
 40
5.0
  0
LINE
  5
DA
330
1F
100
AcDbEntity
  8
0
  6
Continuous
 62
     7
370
    25
100
AcDbLine
 10
54.0570913462
 20
-40.9391405632
 30
0.0
 11
207.1570913462
 21
-40.9391405632
 31
0.0
  0
LINE
  5
DB
330
1F
100
AcDbEntity
  8
0
  6
Continuous
 62
     7
370
    25
100
AcDbLine
 10
54.0570913462
 20
-194.9391405632
 30
0.0
 11
207.1570913462
 21
-194.9391405632
 31
0.0
  0
LINE
  5
DC
330
1F
100
AcDbEntity
  8
0
  6
Continuous
 62
     1
370
    25
100
AcDbLine
 10
53.0570913462
 20
-105.4391405632
 30
0.0
 11
208.1570913462
 21
-105.4391405632
 31
0.0
  0
LINE
  5
DD
330
1F
100
AcDbEntity
  8
0
  6
Continuous
 62
     1
370
    25
100
AcDbLine
 10
53.0570913462
 20
-130.4391405632
 30
0.0
 11
208.1570913462
 21
-130.4391405632
 31
0.0
  0
INSERT
  5
E9
330
1F
100
AcDbEntity
  8
FORMAT
 62
     7
100
AcDbBlockReference
  2
SW_CENTERMARKSYMBOL_1
 10
130.6070913462
 20
-52.9391405632
 30
0.0
  0
INSERT
  5
F5
330
1F
100
AcDbEntity
  8
FORMAT
 62
     7
100
AcDbBlockReference
  2
SW_CENTERMARKSYMBOL_2
 10
130.6070913462
 20
-182.9391405632
 30
0.0
  0
SPLINE
  5
F6
330
1F
100
AcDbEntity
  8
0
  6
Continuous
 62
     7
370
    25
100
AcDbSpline
210
0.0
220
0.0
230
1.0
 70
     8
 71
     3
 72
    11
 73
     7
 74
     0
 42
0.00000001
 43
0.00000001
 40
0.0
 40
0.0
 40
0.0
 40
0.0
 40
0.2185323321495666
 40
0.5060417969174884
 40
0.7934792679698196
 40
1.0
 40
1.0
 40
1.0
 40
1.0
 10
324.1755075876225
 20
-50.43510735666549
 30
0.0
 10
320.7921200610572
 20
-52.39178678356569
 30
0.0
 10
312.9574189586156
 20
-56.9227482364567
 30
0.0
 10
300.776214003129
 20
-64.20255477571824
 30
0.0
 10
288.8391847368267
 20
-71.46878398930868
 30
0.0
 10
281.3627260291432
 20
-76.16805337570288
 30
0.0
 10
278.2368669672454
 20
-78.13278753261906
 30
0.0
  0
SPLINE
  5
F7
330
1F
100
AcDbEntity
  8
0
  6
Continuous
 62
     7
370
    25
100
AcDbSpline
210
0.0
220
0.0
230
1.0
 70
     8
 71
     3
 72
    12
 73
     8
 74
     0
 42
0.00000001
 43
0.00000001
 40
0.0
 40
0.0
 40
0.0
 40
0.0
 40
0.0681061126801912
 40
0.355736036798826
 40
0.6433619460908263
 40
0.9309680278860218
 40
1.0
 40
1.0
 40
1.0
 40
1.0
 10
354.7474463746708
 20
-210.6642691197553
 30
0.0
 10
355.8262536096283
 20
-210.1001760424678
 30
0.0
 10
361.4611459141673
 20
-207.1537703851341
 30
0.0
 10
371.5788924348796
 20
-201.6781920989924
 30
0.0
 10
385.0859090174338
 20
-194.2193954370717
 30
0.0
 10
395.1250771892631
 20
-188.5635410176486
 30
0.0
 10
400.6368532116862
 20
-185.3539813014493
 30
0.0
 10
401.7037297396051
 20
-184.7327289297569
 30
0.0
  0
LINE
  5
F8
330
1F
100
AcDbEntity
  8
0
  6
Continuous
 62
     7
370
    25
100
AcDbLine
 10
341.8454333183
 20
-40.2167309642
 30
0.0
 11
324.1677637886
 21
-50.421832362
 31
0.0
  0
LINE
  5
F9
330
1F
100
AcDbEntity
  8
0
  6
Continuous
 62
     7
370
    25
100
AcDbLine
 10
401.7114615045
 20
-184.7460109172
 30
0.0
 11
419.3891310342
 21
-174.5409095194
 31
0.0
  0
LINE
  5
FA
330
1F
100
AcDbEntity
  8
0
  6
Continuous
 62
     7
370
    25
100
AcDbLine
 10
332.8165066343
 20
-76.2656510489
 30
0.0
 11
332.8165066343
 21
-68.0572380221
 31
0.0
  0
LINE
  5
FB
330
1F
100
AcDbEntity
  8
0
  6
Continuous
 62
     7
370
    25
100
AcDbLine
 10
318.8165066343
 20
-68.0572380221
 30
0.0
 11
318.8165066343
 21
-76.4697238421
 31
0.0
  0
SPLINE
  5
FC
330
1F
100
AcDbEntity
  8
0
  6
Continuous
 62
     7
370
    25
100
AcDbSpline
210
0.0
220
0.0
230
1.0
 70
     8
 71
     3
 72
    12
 73
     8
 74
     0
 42
0.00000001
 43
0.00000001
 40
0.0
 40
0.0
 40
0.0
 40
0.0
 40
0.0681280357968227
 40
0.3557512733916743
 40
0.6433704962549636
 40
0.930969892080471
 40
1.0
 40
1.0
 40
1.0
 40
1.0
 10
388.8105649920012
 20
-14.2978876414383
 30
0.0
 10
387.7313852711738
 20
-14.86217514727223
 30
0.0
 10
382.0961199151055
 20
-17.80877409749157
 30
0.0
 10
371.9780018593945
 20
-23.28454872176948
 30
0.0
 10
358.4709859582861
 20
-30.74334674953003
 30
0.0
 10
348.4318216524726
 20
-36.3991985440207
 30
0.0
 10
342.9200496365093
 20
-39.60875592242024
 30
0.0
 10
341.8531771172861
 20
-40.23000595888173
 30
0.0
  0
SPLINE
  5
FD
330
1F
100
AcDbEntity
  8
0
  6
Continuous
 62
     7
370
    25
100
AcDbSpline
210
0.0
220
0.0
230
1.0
 70
     8
 71
     3
 72
    11
 73
     7
 74
     0
 42
0.00000001
 43
0.00000001
 40
0.0
 40
0.0
 40
0.0
 40
0.0
 40
0.2185301400185969
 40
0.5060370620194921
 40
0.7934719909416744
 40
1.0
 40
1.0
 40
1.0
 40
1.0
 10
419.3813992692689
 20
-174.5276275319732
 30
0.0
 10
422.7647827701428
 20
-172.5709504127433
 30
0.0
 10
430.5994798344551
 20
-168.0399912477897
 30
0.0
 10
442.7806809419766
 20
-160.7601872940752
 30
0.0
 10
454.7178487349308
 20
-153.4938726116406
 30
0.0
 10
462.1944450016456
 20
-148.7945162605083
 30
0.0
 10
465.3204417572129
 20
-146.8296953469741
 30
0.0
  0
LINE
  5
FE
330
1F
100
AcDbEntity
  8
0
  6
Continuous
 62
     7
370
    25
100
AcDbLine
 10
424.7403881885
 20
-23.403487841
 30
0.0
 11
424.7403881885
 21
-14.9907107536
 31
0.0
  0
LINE
  5
FF
330
1F
100
AcDbEntity
  8
0
  6
Continuous
 62
     7
370
    25
100
AcDbLine
 10
410.7403881885
 20
-14.9907107536
 30
0.0
 11
410.7403881885
 21
-23.1994416635
 31
0.0
  0
LWPOLYLINE
  5
100
330
1F
100
AcDbEntity
  8
0
  6
Continuous
 62
     7
370
    25
100
AcDbPolyline
 90
      128
 70
   128
 43
0.0
 10
263.2022011602
 20
-112.6650627659
 10
263.2684325564
 20
-109.6121332709
 10
263.4669646658
 20
-106.6431439483
 10
263.7973116469
 20
-103.7653604126
 10
264.2586650854
 20
-100.9858250823
 10
264.8498959721
 20
-98.3113399461
 10
265.569557466
 20
-95.7484499173
 10
266.4158884347
 20
-93.3034268172
 10
267.3868177646
 20
-90.9822540272
 10
268.4799694289
 20
-88.790611846
 10
269.6926683023
 20
-86.7338635893
 10
271.0219467074
 20
-84.8170424646
 10
272.4645516772
 20
-83.0448392546
 10
274.0169529157
 20
-81.4215908374
 10
275.6753514369
 20
-79.9512695739
 10
277.4356888616
 20
-78.6374735866
 10
279.2936573493
 20
-77.4834179545
 10
281.2447101396
 20
-76.4919268451
 10
283.2840726795
 20
-75.6654266032
 10
285.4067543071
 20
-75.0059398136
 10
287.6075604648
 20
-74.5150803508
 10
289.881105411
 20
-74.1940494301
 10
292.2218254004
 20
-74.0436326682
 10
294.6239922989
 20
-74.0641981599
 10
297.0817276015
 20
-74.2556955782
 10
299.5890168181
 20
-74.6176562966
 10
302.1397241918
 20
-75.1491945367
 10
304.7276077143
 20
-75.8490095354
 10
307.346334401
 20
-76.715388728
 10
309.9894957888
 20
-77.7462119396
 10
312.6506236189
 20
-78.9389565729
 10
315.3232056655
 20
-80.290703782
 10
318.0007016725
 20
-81.7981456149
 10
320.6765593586
 20
-83.4575931089
 10
323.3442304516
 20
-85.2649853179
 10
325.9971867132
 20
-87.2158992502
 10
328.628935915
 20
-89.3055606927
 10
331.2330377257
 20
-91.5288558934
 10
333.8031194717
 20
-93.8803440767
 10
336.3328917323
 20
-96.3542707567
 10
338.816163731
 20
-98.9445818204
 10
341.246858485
 20
-101.6449383425
 10
343.6190276768
 20
-104.4487320981
 10
345.9268662111
 20
-107.3491017341
 10
348.1647264202
 20
-110.3389495599
 10
350.3271318851
 20
-113.4109589169
 10
352.4087908373
 20
-116.5576120834
 10
354.4046091085
 20
-119.7712086719
 10
356.3097025971
 20
-123.0438844729
 10
358.1194092199
 20
-126.3676307005
 10
359.8293003216
 20
-129.7343135905
 10
361.4351915122
 20
-133.1356943058
 10
362.9331529068
 20
-136.5634490978
 10
364.3195187428
 20
-140.0091896762
 10
365.5908963508
 20
-143.4644837364
 10
366.7441744567
 20
-146.9208755947
 10
367.7765307958
 20
-150.3699068811
 10
368.6854390189
 20
-153.8031372381
 10
369.4686748756
 20
-157.2121649756
 10
370.1243216562
 20
-160.5886476317
 10
370.6507748834
 20
-163.9243223873
 10
371.0467462378
 20
-167.2110262875
 10
371.3112667111
 20
-170.4407162169
 10
371.4436889775
 20
-173.6054885832
 10
371.4436889775
 20
-176.6975986581
 10
371.3112667111
 20
-179.70947953
 10
371.0467462378
 20
-182.6337606217
 10
370.6507748834
 20
-185.4632857274
 10
370.1243216562
 20
-188.191130525
 10
369.4686748756
 20
-190.8106195211
 10
368.6854390189
 20
-193.3153423873
 10
367.7765307958
 20
-195.699169647
 10
366.7441744567
 20
-197.9562676754
 10
365.5908963508
 20
-200.0811129754
 10
364.3195187428
 20
-202.0685056945
 10
362.9331529068
 20
-203.9135823497
 10
361.4351915122
 20
-205.6118277291
 10
359.8293003216
 20
-207.1590859419
 10
358.1194092199
 20
-208.5515705879
 10
356.3097025971
 20
-209.7858740237
 10
354.4046091085
 20
-210.8589757022
 10
352.4087908373
 20
-211.7682495636
 10
350.3271318851
 20
-212.5114704624
 10
348.1647264202
 20
-213.0868196125
 10
345.9268662111
 20
-213.4928890382
 10
343.6190276768
 20
-213.7286850196
 10
341.246858485
 20
-213.7936305243
 10
338.816163731
 20
-213.6875666198
 10
336.3328917323
 20
-213.4107528623
 10
333.8031194717
 20
-212.9638666614
 10
331.2330377257
 20
-212.3480016226
 10
328.628935915
 20
-211.5646648707
 10
325.9971867132
 20
-210.6157733622
 10
323.3442304516
 20
-209.5036491934
 10
320.6765593586
 20
-208.2310139187
 10
318.0007016725
 20
-206.8009818898
 10
315.3232056655
 20
-205.2170526346
 10
312.6506236189
 20
-203.4831022936
 10
309.9894957888
 20
-201.6033741338
 10
307.346334401
 20
-199.5824681648
 10
304.7276077143
 20
-197.4253298824
 10
302.1397241918
 20
-195.1372381654
 10
299.5890168181
 20
-192.7237923575
 10
297.0817276015
 20
-190.1908985652
 10
294.6239922989
 20
-187.5447552039
 10
292.2218254004
 20
-184.7918378299
 10
289.881105411
 20
-181.9388832934
 10
287.6075604648
 20
-178.9928732521
 10
285.4067543071
 20
-175.9610170863
 10
283.2840726795
 20
-172.850734256
 10
281.2447101396
 20
-169.6696361446
 10
279.2936573493
 20
-166.4255074322
 10
277.4356888616
 20
-163.1262870454
 10
275.6753514369
 20
-159.7800487293
 10
274.0169529157
 20
-156.3949812898
 10
272.4645516772
 20
-152.9793685542
 10
271.0219467074
 20
-149.5415690991
 10
269.6926683023
 20
-146.0899957961
 10
268.4799694289
 20
-142.6330952232
 10
267.3868177646
 20
-139.1793269955
 10
266.4158884347
 20
-135.7371430626
 10
265.569557466
 20
-132.3149670254
 10
264.8498959721
 20
-128.921173522
 10
264.2586650854
 20
-125.564067734
 10
263.7973116469
 20
-122.2518650617
 10
263.4669646658
 20
-118.9926710202
 10
263.2684325564
 20
-115.7944614032
 10
263.2022011602
 20
-112.6650627659
  0
SPLINE
  5
101
330
1F
100
AcDbEntity
  8
0
  6
Continuous
 62
     7
370
    25
100
AcDbSpline
210
0.0
220
0.0
230
1.0
 70
     8
 71
     3
 72
    17
 73
    13
 74
     0
 42
0.00000001
 43
0.00000001
 40
0.0
 40
0.0
 40
0.0
 40
0.0
 40
0.107146718864701
 40
0.2142931812850483
 40
0.3214455669943781
 40
0.4285969817307061
 40
0.5356194342417754
 40
0.6426421315592562
 40
0.7495612928475813
 40
0.8564814342152735
 40
0.9635602798227835
 40
1.0
 40
1.0
 40
1.0
 40
1.0
 10
325.8423106019154
 20
-80.51164107681424
 30
0.0
 10
325.44875517646
 20
-80.49251432982608
 30
0.0
 10
324.6616452674826
 20
-80.45426088162762
 30
0.0
 10
323.512851295285
 20
-80.25444201056723
 30
0.0
 10
322.4306552981411
 20
-79.9575940436731
 30
0.0
 10
321.4429127145625
 20
-79.56741804193379
 30
0.0
 10
320.5818740112315
 20
-79.0963342425986
 30
0.0
 10
319.8676888363237
 20
-78.55998025317176
 30
0.0
 10
319.3220121610713
 20
-77.97078038916472
 30
0.0
 10
318.969808730285
 20
-77.34435339144797
 30
0.0
 10
318.8096743025553
 20
-76.83766470560884
 30
0.0
 10
318.8332831610074
 20
-76.54450385630636
 30
0.0
 10
318.8392775087839
 20
-76.47006958881568
 30
0.0
  0
SPLINE
  5
102
330
1F
100
AcDbEntity
  8
0
  6
Continuous
 62
     7
370
    25
100
AcDbSpline
210
0.0
220
0.0
230
1.0
 70
     8
 71
     3
 72
    16
 73
    12
 74
     0
 42
0.00000001
 43
0.00000001
 40
0.0
 40
0.0
 40
0.0
 40
0.0
 40
0.1074438301808796
 40
0.2151940451133262
 40
0.3231604924883351
 40
0.4311245479556492
 40
0.5387159779994282
 40
0.6463067208678787
 40
0.7535204452736431
 40
0.8607355273750895
 40
1.0
 40
1.0
 40
1.0
 40
1.0
 10
332.8162224916692
 20
-76.26563716800523
 30
0.0
 10
332.7968574878108
 20
-76.5121466710785
 30
0.0
 10
332.7580722592231
 20
-77.00586861896429
 30
0.0
 10
332.4526188931425
 20
-77.72714132137872
 30
0.0
 10
331.9684710805921
 20
-78.40322712998511
 30
0.0
 10
331.3086180673424
 20
-79.0138742953904
 30
0.0
 10
330.4907512076774
 20
-79.53603071997313
 30
0.0
 10
329.5444775795585
 20
-79.95955307892662
 30
0.0
 10
328.4916388419158
 20
-80.26634766816338
 30
0.0
 10
327.2544756497572
 20
-80.48688788959835
 30
0.0
 10
326.3521420100578
 20
-80.50270447814003
 30
0.0
 10
325.8423106019154
 20
-80.51164107681424
 30
0.0
  0
LWPOLYLINE
  5
103
330
1F
100
AcDbEntity
  8
0
  6
Continuous
 62
     7
370
    25
100
AcDbPolyline
 90
      116
 70
   128
 43
0.0
 10
272.8542087234
 20
-118.237048129
 10
272.9205771726
 20
-115.4706097512
 10
273.1194844505
 20
-112.7890548932
 10
273.4503369398
 20
-110.2003863685
 10
273.9121472465
 20
-107.7123297816
 10
274.5035371473
 20
-105.3323104712
 10
275.222741702
 20
-103.0674313503
 10
276.0676145218
 20
-100.9244517084
 10
277.0356341741
 20
-98.909767039
 10
278.1239117077
 20
-97.0293899531
 10
279.3291992748
 20
-95.2889322348
 10
280.6478998235
 20
-93.6935880941
 10
282.0760778331
 20
-92.2481186649
 10
283.6094710592
 20
-90.9568377961
 10
285.2435032535
 20
-89.8235991774
 10
286.973297822
 20
-88.8517848382
 10
288.7936923776
 20
-88.0442950543
 10
290.6992541475
 20
-87.4035396929
 10
292.6842961866
 20
-86.9314310195
 10
294.742894349
 20
-86.6293779922
 10
296.8689049689
 20
-86.4982820557
 10
299.055983195
 20
-86.5385344521
 10
301.2976019262
 20
-86.7500150522
 10
303.5870712911
 20
-87.1320927148
 10
305.9175586134
 20
-87.6836271701
 10
308.282108803
 20
-88.4029724224
 10
310.6736651127
 20
-89.2879816628
 10
313.0850901985
 20
-90.3360136758
 10
315.5091874202
 20
-91.5439407221
 10
317.938722319
 20
-92.9081578725
 10
320.3664442078
 20
-94.4245937669
 10
322.7851078102
 20
-96.0887227646
 10
325.1874948836
 20
-97.8955784506
 10
327.5664357607
 20
-99.8397684574
 10
329.9148307468
 20
-101.9154905578
 10
332.2256713083
 20
-104.1165499813
 10
334.4920609889
 20
-106.4363779015
 10
336.7072359908
 20
-108.8680510401
 10
338.8645853612
 20
-111.4043123286
 10
340.9576707218
 20
-114.0375925667
 10
342.9802454831
 20
-116.760033011
 10
344.9262734871
 20
-119.5635088293
 10
346.7899470214
 20
-122.4396533478
 10
348.5657041517
 20
-125.379883021
 10
350.2482453207
 20
-128.3754230479
 10
351.8325491643
 20
-131.4173335596
 10
353.3138874973
 20
-134.4965362996
 10
354.6878394236
 20
-137.6038417168
 10
355.9503045309
 20
-140.7299763904
 10
357.097515127
 20
-143.8656107059
 10
358.1260474847
 20
-147.0013866982
 10
359.032832059
 20
-150.1279459791
 10
359.8151626485
 20
-153.235957667
 10
360.4707044712
 20
-156.3161462334
 10
360.9975011326
 20
-159.3593191851
 10
361.3939804645
 20
-162.3563944978
 10
361.6589592167
 20
-165.2984277208
 10
361.7916465884
 20
-168.1766386708
 10
361.7916465884
 20
-170.982437635
 10
361.6589592167
 20
-173.7074510064
 10
361.3939804645
 20
-176.3435462743
 10
360.9975011326
 20
-178.8828562942
 10
360.4707044712
 20
-181.3178027671
 10
359.8151626485
 20
-183.6411188555
 10
359.032832059
 20
-185.8458708712
 10
358.1260474847
 20
-187.9254789676
 10
357.097515127
 20
-189.8737367767
 10
355.9503045309
 20
-191.6848299317
 10
354.6878394236
 20
-193.3533534185
 10
353.3138874973
 20
-194.8743277075
 10
351.8325491643
 20
-196.2432136134
 10
350.2482453207
 20
-197.4559258428
 10
348.5657041517
 20
-198.5088451858
 10
346.7899470214
 20
-199.3988293171
 10
344.9262734871
 20
-200.1232221743
 10
342.9802454831
 20
-200.6798618844
 10
340.9576707218
 20
-201.0670872157
 10
338.8645853612
 20
-201.2837425358
 10
336.7072359908
 20
-201.3291812599
 10
334.4920609889
 20
-201.203267781
 10
332.2256713083
 20
-200.9063778744
 10
329.9148307468
 20
-200.4393975764
 10
327.5664357607
 20
-199.8037205396
 10
325.1874948836
 20
-199.0012438742
 10
322.7851078102
 20
-198.0343624859
 10
320.3664442078
 20
-196.9059619288
 10
317.938722319
 20
-195.6194097938
 10
315.5091874202
 20
-194.1785456579
 10
313.0850901985
 20
-192.5876696262
 10
310.6736651127
 20
-190.8515294979
 10
308.282108803
 20
-188.9753065976
 10
305.9175586134
 20
-186.9646003118
 10
303.5870712911
 20
-184.8254113784
 10
301.2976019262
 20
-182.5641239779
 10
299.055983195
 20
-180.1874866806
 10
296.8689049689
 20
-177.7025923064
 10
294.742894349
 20
-175.1168567567
 10
292.6842961866
 20
-172.4379968827
 10
290.6992541475
 20
-169.6740074552
 10
288.7936923776
 20
-166.8331373048
 10
286.973297822
 20
-163.9238647048
 10
285.2435032535
 20
-160.954872068
 10
283.6094710592
 20
-157.9350200354
 10
282.0760778331
 20
-154.8733210322
 10
280.6478998235
 20
-151.7789123718
 10
279.3291992748
 20
-148.6610289857
 10
278.1239117077
 20
-145.5289758634
 10
277.0356341741
 20
-142.3921002825
 10
276.0676145218
 20
-139.2597639125
 10
275.222741702
 20
-136.1413148763
 10
274.5035371473
 20
-133.0460598515
 10
273.9121472465
 20
-129.9832362956
 10
273.4503369398
 20
-126.9619848779
 10
273.1194844505
 20
-123.9913222001
 10
272.9205771726
 20
-121.0801138872
 10
272.8542087234
 20
-118.237048129
  0
LWPOLYLINE
  5
104
330
1F
100
AcDbEntity
  8
0
  6
Continuous
 62
     7
370
    25
100
AcDbPolyline
 90
       39
 70
   128
 43
0.0
 10
330.7662541026
 20
-65.1998096307
 10
331.5134476552
 20
-65.7090984849
 10
332.1052435075
 20
-66.2824384645
 10
332.5254990115
 20
-66.9041903496
 10
332.7627506924
 20
-67.5573943693
 10
332.810526943
 20
-68.2242328209
 10
332.6675245516
 20
-68.8865160897
 10
332.3376442506
 20
-69.5261788146
 10
331.8298843149
 20
-70.1257726639
 10
331.1580951117
 20
-70.6689422805
 10
330.3406012993
 20
-71.1408714131
 10
329.3997019779
 20
-71.5286870652
 10
328.3610624282
 20
-71.8218106368
 10
327.2530140296
 20
-72.012246481
 10
326.105781454
 20
-72.0948000044
 10
324.9506582154
 20
-72.067219362
 10
323.8191530645
 20
-71.9302568819
 10
322.7421305123
 20
-71.6876485435
 10
321.7489689265
 20
-71.3460120699
 10
320.866759166
 20
-70.9146664134
 10
320.1195656134
 20
-70.4053775592
 10
319.527769761
 20
-69.8320375796
 10
319.1075142571
 20
-69.2102856946
 10
318.8702625761
 20
-68.5570816748
 10
318.8224863256
 20
-67.8902432232
 10
318.965488717
 20
-67.2279599544
 10
319.2953690179
 20
-66.5882972295
 10
319.8031289537
 20
-65.9887033802
 10
320.4749181569
 20
-65.4455337636
 10
321.2924119692
 20
-64.973604631
 10
322.2333112906
 20
-64.5857889789
 10
323.2719508403
 20
-64.2926654073
 10
324.3799992389
 20
-64.1022295631
 10
325.5272318145
 20
-64.0196760398
 10
326.6823550532
 20
-64.0472566821
 10
327.813860204
 20
-64.1842191622
 10
328.8908827562
 20
-64.4268275006
 10
329.8840443421
 20
-64.7684639742
 10
330.7662541026
 20
-65.1998096307
  0
LWPOLYLINE
  5
105
330
1F
100
AcDbEntity
  8
0
  6
Continuous
 62
     7
370
    25
100
AcDbPolyline
 90
       33
 70
   128
 43
0.0
 10
329.3520405402
 20
-66.0162177425
 10
329.9738546958
 20
-66.4536186785
 10
330.4359042968
 20
-66.9526458064
 10
330.7204330363
 20
-67.4941217938
 10
330.8165066343
 20
-68.0572380221
 10
330.7204330363
 20
-68.6203542503
 10
330.4359042968
 20
-69.1618302377
 10
329.9738546958
 20
-69.6608573657
 10
329.3520405402
 20
-70.0982583016
 10
328.5943577994
 20
-70.4572239728
 10
327.7299237961
 20
-70.7239595299
 10
326.7919582444
 20
-70.8882144749
 10
325.8165066343
 20
-70.9436765825
 10
324.8410550242
 20
-70.8882144749
 10
323.9030894724
 20
-70.7239595299
 10
323.0386554692
 20
-70.4572239728
 10
322.2809727283
 20
-70.0982583016
 10
321.6591585728
 20
-69.6608573657
 10
321.1971089717
 20
-69.1618302377
 10
320.9125802323
 20
-68.6203542503
 10
320.8165066343
 20
-68.0572380221
 10
320.9125802323
 20
-67.4941217938
 10
321.1971089717
 20
-66.9526458064
 10
321.6591585728
 20
-66.4536186785
 10
322.2809727283
 20
-66.0162177425
 10
323.0386554692
 20
-65.6572520713
 10
323.9030894724
 20
-65.3905165142
 10
324.8410550242
 20
-65.2262615692
 10
325.8165066343
 20
-65.1707994616
 10
326.7919582444
 20
-65.2262615692
 10
327.7299237961
 20
-65.3905165142
 10
328.5943577994
 20
-65.6572520713
 10
329.3520405402
 20
-66.0162177425
  0
LWPOLYLINE
  5
106
330
1F
100
AcDbEntity
  8
0
  6
Continuous
 62
     7
370
    25
100
AcDbPolyline
 90
       12
 70
   128
 43
0.0
 10
388.8021695153
 20
-14.2850978683
 10
390.1391544423
 20
-13.6285022347
 10
392.1785169822
 20
-12.8020019929
 10
394.3011986098
 20
-12.1425152032
 10
396.5020047675
 20
-11.6516557404
 10
398.7755497138
 20
-11.3306248198
 10
401.1162697031
 20
-11.1802080578
 10
403.5184366016
 20
-11.2007735496
 10
405.9761719042
 20
-11.3922709678
 10
408.4834611208
 20
-11.7542316863
 10
411.0341684945
 20
-12.2857699264
 10
412.1409458929
 20
-12.5656731477
  0
LWPOLYLINE
  5
107
330
1F
100
AcDbEntity
  8
0
  6
Continuous
 62
     7
370
    25
100
AcDbPolyline
 90
       49
 70
   128
 43
0.0
 10
424.7403881885
 20
-17.7095607607
 10
426.8951459753
 20
-18.9347210045
 10
429.5710036613
 20
-20.5941684985
 10
432.2386747543
 20
-22.4015607075
 10
434.8916310159
 20
-24.3524746399
 10
437.5233802177
 20
-26.4421360823
 10
440.1274820284
 20
-28.6654312831
 10
442.6975637744
 20
-31.0169194663
 10
445.2273360351
 20
-33.4908461463
 10
447.7106080337
 20
-36.08115721
 10
450.1413027877
 20
-38.7815137321
 10
452.5134719796
 20
-41.5853074877
 10
454.8213105138
 20
-44.4856771237
 10
457.0591707229
 20
-47.4755249495
 10
459.2215761878
 20
-50.5475343066
 10
461.30323514
 20
-53.6941874731
 10
463.2990534113
 20
-56.9077840616
 10
465.2041468998
 20
-60.1804598626
 10
467.0138535226
 20
-63.5042060901
 10
468.7237446243
 20
-66.8708889801
 10
470.3296358149
 20
-70.2722696954
 10
471.8275972095
 20
-73.7000244875
 10
473.2139630456
 20
-77.1457650659
 10
474.4853406536
 20
-80.601059126
 10
475.6386187595
 20
-84.0574509843
 10
476.6709750985
 20
-87.5064822707
 10
477.5798833217
 20
-90.9397126277
 10
478.3631191783
 20
-94.3487403653
 10
479.0187659589
 20
-97.7252230213
 10
479.5452191861
 20
-101.060897777
 10
479.9411905405
 20
-104.3476016771
 10
480.2057110138
 20
-107.5772916066
 10
480.3381332803
 20
-110.7420639729
 10
480.3381332803
 20
-113.8341740477
 10
480.2057110138
 20
-116.8460549196
 10
479.9411905405
 20
-119.7703360113
 10
479.5452191861
 20
-122.599861117
 10
479.0187659589
 20
-125.3277059146
 10
478.3631191783
 20
-127.9471949108
 10
477.5798833217
 20
-130.451917777
 10
476.6709750985
 20
-132.8357450367
 10
475.6386187595
 20
-135.0928430651
 10
474.4853406536
 20
-137.2176883651
 10
473.2139630456
 20
-139.2050810841
 10
471.8275972095
 20
-141.0501577393
 10
470.3296358149
 20
-142.7484031188
 10
468.7237446243
 20
-144.2956613316
 10
467.0138535226
 20
-145.6881459775
 10
465.3275911052
 20
-146.8452852353
  0
SPLINE
  5
108
330
1F
100
AcDbEntity
  8
0
  6
Continuous
 62
     7
370
    25
100
AcDbSpline
210
0.0
220
0.0
230
1.0
 70
     8
 71
     3
 72
    17
 73
    13
 74
     0
 42
0.00000001
 43
0.00000001
 40
0.0
 40
0.0
 40
0.0
 40
0.0
 40
0.1066305895878367
 40
0.2132588914929874
 40
0.3199110093520506
 40
0.4265604947983218
 40
0.5327741929883572
 40
0.6389883966666365
 40
0.7449260095192014
 40
0.8508665104031596
 40
0.9572045952616874
 40
0.9999999999999999
 40
0.9999999999999999
 40
0.9999999999999999
 40
0.9999999999999999
 10
417.8139063813704
 20
-27.24362568495971
 30
0.0
 10
417.4207601874027
 20
-27.21513297472196
 30
0.0
 10
416.6344762341363
 20
-27.15814816553704
 30
0.0
 10
415.4844789104756
 20
-26.93825723118633
 30
0.0
 10
414.3991531400017
 20
-26.6279500665028
 30
0.0
 10
413.4074829818848
 20
-26.2318731444073
 30
0.0
 10
412.5418663444603
 20
-25.76304149762165
 30
0.0
 10
411.8225167521711
 20
-25.23740035513962
 30
0.0
 10
411.2705307781814
 20
-24.66701984138393
 30
0.0
 10
410.9084069217595
 20
-24.06683024225551
 30
0.0
 10
410.7386891343742
 20
-23.57177995386495
 30
0.0
 10
410.7587677677649
 20
-23.28263487537832
 30
0.0
 10
410.7645295402875
 20
-23.19966169011069
 30
0.0
  0
SPLINE
  5
109
330
1F
100
AcDbEntity
  8
0
  6
Continuous
 62
     7
370
    25
100
AcDbSpline
210
0.0
220
0.0
230
1.0
 70
     8
 71
     3
 72
    16
 73
    12
 74
     0
 42
0.00000001
 43
0.00000001
 40
0.0
 40
0.0
 40
0.0
 40
0.0
 40
0.1035151026606152
 40
0.211622316258173
 40
0.3196218363679615
 40
0.4276204320709543
 40
0.5353259249605754
 40
0.6430328826272408
 40
0.7507738982146996
 40
0.8585171082397
 40
1.0
 40
1.0
 40
1.0
 40
1.0
 10
424.7363126527061
 20
-23.40330447037192
 30
0.0
 10
424.7199690081752
 20
-23.62873656232869
 30
0.0
 10
424.6865566864672
 20
-24.08960130798057
 30
0.0
 10
424.3915420604372
 20
-24.76066377647044
 30
0.0
 10
423.9157303911764
 20
-25.39228683942443
 30
0.0
 10
423.2648197096737
 20
-25.956385722449
 30
0.0
 10
422.4564163746419
 20
-26.43212729784006
 30
0.0
 10
421.5185580379658
 20
-26.81127411907697
 30
0.0
 10
420.4725040206401
 20
-27.07694571691159
 30
0.0
 10
419.235022841312
 20
-27.25678664161483
 30
0.0
 10
418.3285187133162
 20
-27.24839150872281
 30
0.0
 10
417.8139063813704
 20
-27.24362568495971
 30
0.0
  0
LWPOLYLINE
  5
10A
330
1F
100
AcDbEntity
  8
0
  6
Continuous
 62
     7
370
    25
100
AcDbPolyline
 90
       39
 70
   128
 43
0.0
 10
412.7906407202
 20
-17.848139145
 10
412.0434471676
 20
-17.3388502908
 10
411.4516513153
 20
-16.7655103111
 10
411.0313958113
 20
-16.1437584261
 10
410.7941441304
 20
-15.4905544063
 10
410.7463678798
 20
-14.8237159547
 10
410.8893702712
 20
-14.1614326859
 10
411.2192505722
 20
-13.521769961
 10
411.7270105079
 20
-12.9221761117
 10
412.3987997111
 20
-12.3790064952
 10
413.2162935235
 20
-11.9070773626
 10
414.1571928449
 20
-11.5192617105
 10
415.1958323946
 20
-11.2261381388
 10
416.3038807932
 20
-11.0357022947
 10
417.4511133688
 20
-10.9531487713
 10
418.6062366074
 20
-10.9807294137
 10
419.7377417583
 20
-11.1176918938
 10
420.8147643105
 20
-11.3603002321
 10
421.8079258963
 20
-11.7019367058
 10
422.6901356568
 20
-12.1332823622
 10
423.4373292094
 20
-12.6425712164
 10
424.0291250618
 20
-13.2159111961
 10
424.4493805657
 20
-13.8376630811
 10
424.6866322467
 20
-14.4908671008
 10
424.7344084972
 20
-15.1577055524
 10
424.5914061058
 20
-15.8199888213
 10
424.2615258049
 20
-16.4596515461
 10
423.7537658691
 20
-17.0592453955
 10
423.0819766659
 20
-17.602415012
 10
422.2644828535
 20
-18.0743441446
 10
421.3235835322
 20
-18.4621597967
 10
420.2849439825
 20
-18.7552833683
 10
419.1768955839
 20
-18.9457192125
 10
418.0296630083
 20
-19.0282727359
 10
416.8745397696
 20
-19.0006920935
 10
415.7430346188
 20
-18.8637296134
 10
414.6660120666
 20
-18.6211212751
 10
413.6728504807
 20
-18.2794848014
 10
412.7906407202
 20
-17.848139145
  0
LWPOLYLINE
  5
10B
330
1F
100
AcDbEntity
  8
0
  6
Continuous
 62
     7
370
    25
100
AcDbPolyline
 90
       33
 70
   128
 43
0.0
 10
414.2048542826
 20
-17.0317310331
 10
413.583040127
 20
-16.5943300972
 10
413.120990526
 20
-16.0953029692
 10
412.8364617865
 20
-15.5538269818
 10
412.7403881885
 20
-14.9907107536
 10
412.8364617865
 20
-14.4275945254
 10
413.120990526
 20
-13.886118538
 10
413.583040127
 20
-13.38709141
 10
414.2048542826
 20
-12.949690474
 10
414.9625370234
 20
-12.5907248028
 10
415.8269710267
 20
-12.3239892458
 10
416.7649365784
 20
-12.1597343007
 10
417.7403881885
 20
-12.1042721932
 10
418.7158397986
 20
-12.1597343007
 10
419.6538053503
 20
-12.3239892458
 10
420.5182393536
 20
-12.5907248028
 10
421.2759220945
 20
-12.949690474
 10
421.89773625
 20
-13.38709141
 10
422.3597858511
 20
-13.886118538
 10
422.6443145905
 20
-14.4275945254
 10
422.7403881885
 20
-14.9907107536
 10
422.6443145905
 20
-15.5538269818
 10
422.3597858511
 20
-16.0953029692
 10
421.89773625
 20
-16.5943300972
 10
421.2759220945
 20
-17.0317310331
 10
420.5182393536
 20
-17.3906967044
 10
419.6538053503
 20
-17.6574322614
 10
418.7158397986
 20
-17.8216872064
 10
417.7403881885
 20
-17.877149314
 10
416.7649365784
 20
-17.8216872064
 10
415.8269710267
 20
-17.6574322614
 10
414.9625370234
 20
-17.3906967044
 10
414.2048542826
 20
-17.0317310331
  0
LWPOLYLINE
  5
10C
330
1F
100
AcDbEntity
  8
0
  6
Continuous
 62
     1
370
    25
100
AcDbPolyline
 90
       66
 70
   128
 43
0.0
 10
324.168150559
 20
-50.4216090886
 10
326.1139179043
 20
-49.4058451406
 10
328.1519394861
 20
-48.552285466
 10
330.2737676197
 20
-47.8650290494
 10
332.4742906351
 20
-47.3457315517
 10
334.7482072797
 20
-46.9956440061
 10
337.0900394891
 20
-46.8156098041
 10
339.4941455844
 20
-46.8060626638
 10
341.9547338634
 20
-46.9670255853
 10
344.4658765535
 20
-47.2981107946
 10
347.0215240919
 20
-47.7985206786
 10
349.6155196999
 20
-48.467049706
 10
352.2416142149
 20
-49.3020873318
 10
354.8934811451
 20
-50.3016218772
 10
357.5647319109
 20
-51.463245376
 10
360.2489312351
 20
-52.7841593754
 10
362.9396126466
 20
-54.2611816778
 10
365.630294058
 20
-55.8907540073
 10
368.3144933823
 20
-57.6689505813
 10
370.985744148
 20
-59.5914875685
 10
373.6376110783
 20
-61.6537334088
 10
376.2637055932
 20
-63.8507199716
 10
378.8577012012
 20
-66.1771545236
 10
381.4133487397
 20
-68.6274324803
 10
383.9244914297
 20
-71.1956509075
 10
386.3850797088
 20
-73.875622742
 10
388.789185804
 20
-76.660891697
 10
391.1310180134
 20
-79.5447478155
 10
393.404934658
 20
-82.5202436356
 10
395.6054576734
 20
-85.5802109272
 10
397.727285807
 20
-88.7172779612
 10
399.7653073889
 20
-91.9238872681
 10
401.7146126466
 20
-95.1923138454
 10
403.570505533
 20
-98.5146837672
 10
405.3285150396
 20
-101.8829931533
 10
406.9844059675
 20
-105.2891274513
 10
408.5341891304
 20
-108.7248809855
 10
409.9741309649
 20
-112.1819767245
 10
411.3007625251
 20
-115.652086222
 10
412.5108878393
 20
-119.1268496802
 10
413.6015916096
 20
-122.5978960896
 10
414.5702462352
 20
-126.0568633954
 10
415.4145181421
 20
-129.4954186424
 10
416.1323734054
 20
-132.9052780497
 10
416.7220826489
 20
-136.2782269675
 10
417.1822252114
 20
-139.6061396663
 10
417.5116925692
 20
-142.880998913
 10
417.7096910064
 20
-146.0949152847
 10
417.7757435276
 20
-149.2401461755
 10
417.7096910064
 20
-152.3091144486
 10
417.5116925692
 20
-155.2944266907
 10
417.1822252114
 20
-158.1888910231
 10
416.7220826489
 20
-160.9855344276
 10
416.1323734054
 20
-163.6776195455
 10
415.4145181421
 20
-166.2586609077
 10
414.5702462352
 20
-168.7224405596
 10
413.6015916096
 20
-171.0630230402
 10
412.5108878393
 20
-173.2747696814
 10
411.3007625251
 20
-175.3523521917
 10
409.9741309649
 20
-177.2907654928
 10
408.5341891304
 20
-179.0853397774
 10
406.9844059675
 20
-180.7317517589
 10
405.3285150396
 20
-182.2260350864
 10
403.570505533
 20
-183.5645899007
 10
401.7146126466
 20
-184.744191506
 10
401.7111197211
 20
-184.7462082211
  0
LWPOLYLINE
  5
10D
330
1F
100
AcDbEntity
  8
0
  6
Continuous
 62
     1
370
    25
100
AcDbPolyline
 90
       66
 70
   128
 43
0.0
 10
341.8454333183
 20
-40.2167309642
 10
343.7915874339
 20
-39.2007437428
 10
345.8296090158
 20
-38.3471840682
 10
347.9514371494
 20
-37.6599276516
 10
350.1519601648
 20
-37.1406301539
 10
352.4258768094
 20
-36.7905426083
 10
354.7677090188
 20
-36.6105084063
 10
357.171815114
 20
-36.600961266
 10
359.6324033931
 20
-36.7619241875
 10
362.1435460831
 20
-37.0930093968
 10
364.6991936215
 20
-37.5934192808
 10
367.2931892296
 20
-38.2619483082
 10
369.9192837445
 20
-39.096985934
 10
372.5711506748
 20
-40.0965204794
 10
375.2424014405
 20
-41.2581439782
 10
377.9266007648
 20
-42.5790579776
 10
380.6172821762
 20
-44.0560802801
 10
383.3079635877
 20
-45.6856526095
 10
385.9921629119
 20
-47.4638491835
 10
388.6634136777
 20
-49.3863861707
 10
391.3152806079
 20
-51.4486320111
 10
393.9413751229
 20
-53.6456185738
 10
396.5353707309
 20
-55.9720531258
 10
399.0910182693
 20
-58.4223310826
 10
401.6021609594
 20
-60.9905495097
 10
404.0627492384
 20
-63.6705213443
 10
406.4668553337
 20
-66.4557902992
 10
408.8086875431
 20
-69.3396464177
 10
411.0826041877
 20
-72.3151422378
 10
413.2831272031
 20
-75.3751095295
 10
415.4049553367
 20
-78.5121765634
 10
417.4429769185
 20
-81.7187858703
 10
419.3922821762
 20
-84.9872124477
 10
421.2481750626
 20
-88.3095823694
 10
423.0061845692
 20
-91.6778917555
 10
424.6620754971
 20
-95.0840260535
 10
426.21185866
 20
-98.5197795877
 10
427.6518004946
 20
-101.9768753267
 10
428.9784320548
 20
-105.4469848242
 10
430.188557369
 20
-108.9217482824
 10
431.2792611393
 20
-112.3927946918
 10
432.2479157648
 20
-115.8517619976
 10
433.0921876718
 20
-119.2903172446
 10
433.8100429351
 20
-122.7001766519
 10
434.3997521786
 20
-126.0731255697
 10
434.8598947411
 20
-129.4010382685
 10
435.1893620988
 20
-132.6758975152
 10
435.3873605361
 20
-135.8898138869
 10
435.4534130572
 20
-139.0350447777
 10
435.3873605361
 20
-142.1040130509
 10
435.1893620988
 20
-145.0893252929
 10
434.8598947411
 20
-147.9837896253
 10
434.3997521786
 20
-150.7804330299
 10
433.8100429351
 20
-153.4725181477
 10
433.0921876718
 20
-156.0535595099
 10
432.2479157648
 20
-158.5173391618
 10
431.2792611393
 20
-160.8579216425
 10
430.188557369
 20
-163.0696682836
 10
428.9784320548
 20
-165.1472507939
 10
427.6518004946
 20
-167.085664095
 10
426.21185866
 20
-168.8802383796
 10
424.6620754971
 20
-170.5266503611
 10
423.0061845692
 20
-172.0209336886
 10
421.2481750626
 20
-173.3594885029
 10
419.3922821762
 20
-174.5390901082
 10
419.3891310342
 20
-174.5409095194
  0
ENDSEC
  0
SECTION
  2
OBJECTS
  0
DICTIONARY
  5
C
330
0
100
AcDbDictionary
281
     1
  3
ACAD_GROUP
350
D
  3
ACAD_LAYOUT
350
1A
  3
ACAD_MLINESTYLE
350
17
  3
ACAD_PLOTSETTINGS
350
19
  3
ACAD_PLOTSTYLENAME
350
E
  3
ACAD_SCALELIST
350
47
  3
DWGPROPS
350
10E
  0
DICTIONARY
  5
D
102
{ACAD_REACTORS
330
C
102
}
330
C
100
AcDbDictionary
281
     1
  0
DICTIONARY
  5
1A
102
{ACAD_REACTORS
330
C
102
}
330
C
100
AcDbDictionary
281
     1
  3
Layout1
350
1E
  3
Layout2
350
26
  3
Model
350
22
  0
DICTIONARY
  5
17
102
{ACAD_REACTORS
330
C
102
}
330
C
100
AcDbDictionary
281
     1
  3
Standard
350
18
  0
DICTIONARY
  5
19
102
{ACAD_REACTORS
330
C
102
}
330
C
100
AcDbDictionary
281
     1
  0
ACDBDICTIONARYWDFLT
  5
E
102
{ACAD_REACTORS
330
C
102
}
330
C
100
AcDbDictionary
281
     1
  3
Normal
350
F
100
AcDbDictionaryWithDefault
340
F
  0
DICTIONARY
  5
47
102
{ACAD_REACTORS
330
C
102
}
330
C
100
AcDbDictionary
281
     1
  3
A0
350
48
  3
A1
350
49
  3
A2
350
4A
  3
A3
350
4B
  3
A4
350
4C
  3
A5
350
4D
  3
A6
350
4E
  3
A7
350
4F
  3
A8
350
50
  3
A9
350
51
  3
B0
350
52
  3
B1
350
53
  3
B2
350
54
  3
B3
350
55
  3
B4
350
56
  3
B5
350
57
  3
B6
350
58
  3
B7
350
59
  3
B8
350
5A
  3
B9
350
5B
  3
C0
350
5C
  3
C1
350
5D
  3
C2
350
5E
  3
C3
350
5F
  3
C4
350
60
  3
C5
350
61
  3
C6
350
62
  3
C7
350
63
  3
C8
350
64
  3
C9
350
65
  3
D0
350
66
  3
D1
350
67
  3
D2
350
68
  0
XRECORD
  5
10E
102
{ACAD_REACTORS
330
C
102
}
330
C
100
AcDbXrecord
280
     1
  1
DWGPROPS COOKIE
  2

  3

  4

  6

  7

  8
b.kav
  9

300
=
301
=
302
=
303
=
304
=
305
=
306
=
307
=
308
=
309
=
 40
0.0
 41
2459935.585222106
 42
2459935.58522228
  1

 90
        0
  0
LAYOUT
  5
1E
102
{ACAD_REACTORS
330
1A
102
}
330
1A
100
AcDbPlotSettings
  1

  2
none_device
  4

  6

 40
0.0
 41
0.0
 42
0.0
 43
0.0
 44
0.0
 45
0.0
 46
0.0
 47
0.0
 48
0.0
 49
0.0
140
0.0
141
0.0
142
1.0
143
1.0
 70
   688
 72
     1
 73
     0
 74
     5
  7

 75
    16
147
1.0
148
0.0
149
0.0
100
AcDbLayout
  1
Layout1
 70
     1
 71
     1
 10
0.0
 20
0.0
 11
420.0
 21
297.0
 12
0.0
 22
0.0
 32
0.0
 14
1.0000000000E+20
 24
1.0000000000E+20
 34
1.0000000000E+20
 15
-1.0000000000E+20
 25
-1.0000000000E+20
 35
-1.0000000000E+20
146
0.0
 13
0.0
 23
0.0
 33
0.0
 16
1.0
 26
0.0
 36
0.0
 17
0.0
 27
1.0
 37
0.0
 76
     0
330
1B
  0
LAYOUT
  5
26
102
{ACAD_REACTORS
330
1A
102
}
330
1A
100
AcDbPlotSettings
  1

  2
none_device
  4

  6

 40
0.0
 41
0.0
 42
0.0
 43
0.0
 44
0.0
 45
0.0
 46
0.0
 47
0.0
 48
0.0
 49
0.0
140
0.0
141
0.0
142
1.0
143
1.0
 70
   688
 72
     1
 73
     0
 74
     5
  7

 75
    16
147
1.0
148
0.0
149
0.0
100
AcDbLayout
  1
Layout2
 70
     1
 71
     2
 10
0.0
 20
0.0
 11
0.0
 21
0.0
 12
0.0
 22
0.0
 32
0.0
 14
0.0
 24
0.0
 34
0.0
 15
0.0
 25
0.0
 35
0.0
146
0.0
 13
0.0
 23
0.0
 33
0.0
 16
1.0
 26
0.0
 36
0.0
 17
0.0
 27
1.0
 37
0.0
 76
     0
330
23
  0
LAYOUT
  5
22
102
{ACAD_REACTORS
330
1A
102
}
330
1A
100
AcDbPlotSettings
  1

  2
none_device
  4
Letter_(8.50_x_11.00_Inches)
  6

 40
6.35
 41
6.35
 42
6.35000508
 43
6.35000508
 44
215.9
 45
279.4
 46
0.0
 47
0.0
 48
0.0
 49
0.0
140
0.0
141
0.0
142
1.0
143
1.0
 70
  1712
 72
     1
 73
     0
 74
     0
  7

 75
     0
147
1.0
148
0.0
149
0.0
100
AcDbLayout
  1
Model
 70
     1
 71
     0
 10
0.0
 20
0.0
 11
279.4
 21
215.9
 12
0.0
 22
0.0
 32
0.0
 14
0.0
 24
0.0
 34
0.0
 15
279.4
 25
215.9
 35
0.0
146
0.0
 13
0.0
 23
0.0
 33
0.0
 16
1.0
 26
0.0
 36
0.0
 17
0.0
 27
1.0
 37
0.0
 76
     0
330
1F
331
29
  0
MLINESTYLE
  5
18
102
{ACAD_REACTORS
330
17
102
}
330
17
100
AcDbMlineStyle
  2
Standard
 70
     0
  3

 62
   256
 51
90.0
 52
90.0
 71
     2
 49
0.5
 62
   256
  6
BYLAYER
 49
-0.5
 62
   256
  6
BYLAYER
  0
ACDBPLACEHOLDER
  5
F
102
{ACAD_REACTORS
330
E
102
}
330
E
  0
SCALE
  5
48
102
{ACAD_REACTORS
330
47
102
}
330
47
100
AcDbScale
 70
     0
300
1:1
140
1.0
141
1.0
290
     1
  0
SCALE
  5
49
102
{ACAD_REACTORS
330
47
102
}
330
47
100
AcDbScale
 70
     0
300
1:2
140
1.0
141
2.0
290
     0
  0
SCALE
  5
4A
102
{ACAD_REACTORS
330
47
102
}
330
47
100
AcDbScale
 70
     0
300
1:4
140
1.0
141
4.0
290
     0
  0
SCALE
  5
4B
102
{ACAD_REACTORS
330
47
102
}
330
47
100
AcDbScale
 70
     0
300
1:5
140
1.0
141
5.0
290
     0
  0
SCALE
  5
4C
102
{ACAD_REACTORS
330
47
102
}
330
47
100
AcDbScale
 70
     0
300
1:8
140
1.0
141
8.0
290
     0
  0
SCALE
  5
4D
102
{ACAD_REACTORS
330
47
102
}
330
47
100
AcDbScale
 70
     0
300
1:10
140
1.0
141
10.0
290
     0
  0
SCALE
  5
4E
102
{ACAD_REACTORS
330
47
102
}
330
47
100
AcDbScale
 70
     0
300
1:16
140
1.0
141
16.0
290
     0
  0
SCALE
  5
4F
102
{ACAD_REACTORS
330
47
102
}
330
47
100
AcDbScale
 70
     0
300
1:20
140
1.0
141
20.0
290
     0
  0
SCALE
  5
50
102
{ACAD_REACTORS
330
47
102
}
330
47
100
AcDbScale
 70
     0
300
1:30
140
1.0
141
30.0
290
     0
  0
SCALE
  5
51
102
{ACAD_REACTORS
330
47
102
}
330
47
100
AcDbScale
 70
     0
300
1:40
140
1.0
141
40.0
290
     0
  0
SCALE
  5
52
102
{ACAD_REACTORS
330
47
102
}
330
47
100
AcDbScale
 70
     0
300
1:50
140
1.0
141
50.0
290
     0
  0
SCALE
  5
53
102
{ACAD_REACTORS
330
47
102
}
330
47
100
AcDbScale
 70
     0
300
1:100
140
1.0
141
100.0
290
     0
  0
SCALE
  5
54
102
{ACAD_REACTORS
330
47
102
}
330
47
100
AcDbScale
 70
     0
300
2:1
140
2.0
141
1.0
290
     0
  0
SCALE
  5
55
102
{ACAD_REACTORS
330
47
102
}
330
47
100
AcDbScale
 70
     0
300
4:1
140
4.0
141
1.0
290
     0
  0
SCALE
  5
56
102
{ACAD_REACTORS
330
47
102
}
330
47
100
AcDbScale
 70
     0
300
8:1
140
8.0
141
1.0
290
     0
  0
SCALE
  5
57
102
{ACAD_REACTORS
330
47
102
}
330
47
100
AcDbScale
 70
     0
300
10:1
140
10.0
141
1.0
290
     0
  0
SCALE
  5
58
102
{ACAD_REACTORS
330
47
102
}
330
47
100
AcDbScale
 70
     0
300
100:1
140
100.0
141
1.0
290
     0
  0
SCALE
  5
59
102
{ACAD_REACTORS
330
47
102
}
330
47
100
AcDbScale
 70
     0
300
1/128" = 1'-0"
140
0.0078125
141
12.0
290
     0
  0
SCALE
  5
5A
102
{ACAD_REACTORS
330
47
102
}
330
47
100
AcDbScale
 70
     0
300
1/64" = 1'-0"
140
0.015625
141
12.0
290
     0
  0
SCALE
  5
5B
102
{ACAD_REACTORS
330
47
102
}
330
47
100
AcDbScale
 70
     0
300
1/32" = 1'-0"
140
0.03125
141
12.0
290
     0
  0
SCALE
  5
5C
102
{ACAD_REACTORS
330
47
102
}
330
47
100
AcDbScale
 70
     0
300
1/16" = 1'-0"
140
0.0625
141
12.0
290
     0
  0
SCALE
  5
5D
102
{ACAD_REACTORS
330
47
102
}
330
47
100
AcDbScale
 70
     0
300
3/32" = 1'-0"
140
0.09375
141
12.0
290
     0
  0
SCALE
  5
5E
102
{ACAD_REACTORS
330
47
102
}
330
47
100
AcDbScale
 70
     0
300
1/8" = 1'-0"
140
0.125
141
12.0
290
     0
  0
SCALE
  5
5F
102
{ACAD_REACTORS
330
47
102
}
330
47
100
AcDbScale
 70
     0
300
3/16" = 1'-0"
140
0.1875
141
12.0
290
     0
  0
SCALE
  5
60
102
{ACAD_REACTORS
330
47
102
}
330
47
100
AcDbScale
 70
     0
300
1/4" = 1'-0"
140
0.25
141
12.0
290
     0
  0
SCALE
  5
61
102
{ACAD_REACTORS
330
47
102
}
330
47
100
AcDbScale
 70
     0
300
3/8" = 1'-0"
140
0.375
141
12.0
290
     0
  0
SCALE
  5
62
102
{ACAD_REACTORS
330
47
102
}
330
47
100
AcDbScale
 70
     0
300
1/2" = 1'-0"
140
0.5
141
12.0
290
     0
  0
SCALE
  5
63
102
{ACAD_REACTORS
330
47
102
}
330
47
100
AcDbScale
 70
     0
300
3/4" = 1'-0"
140
0.75
141
12.0
290
     0
  0
SCALE
  5
64
102
{ACAD_REACTORS
330
47
102
}
330
47
100
AcDbScale
 70
     0
300
1" = 1'-0"
140
1.0
141
12.0
290
     0
  0
SCALE
  5
65
102
{ACAD_REACTORS
330
47
102
}
330
47
100
AcDbScale
 70
     0
300
1-1/2" = 1'-0"
140
1.5
141
12.0
290
     0
  0
SCALE
  5
66
102
{ACAD_REACTORS
330
47
102
}
330
47
100
AcDbScale
 70
     0
300
3" = 1'-0"
140
3.0
141
12.0
290
     0
  0
SCALE
  5
67
102
{ACAD_REACTORS
330
47
102
}
330
47
100
AcDbScale
 70
     0
300
6" = 1'-0"
140
6.0
141
12.0
290
     0
  0
SCALE
  5
68
102
{ACAD_REACTORS
330
47
102
}
330
47
100
AcDbScale
 70
     0
300
1'-0" = 1'-0"
140
12.0
141
12.0
290
     0
  0
ENDSEC
  0
EOF
